Home » D » Donald Fagen »

Donald Fagen - Green Flower Street Bass

Artists:  A B C D E F G H I J K L M N O P Q R S T U V W X Y Z # 

Green Flower Street Bass

(ver. 1) Click to play this song!
Donald Fagen
Intro

8 Bars Rest

|-----------------|-----------------|-----------------|-----5-7-5-------|
|-----------7-9---|-10--9---7-------|-----------------|-----------------|
|-----------------|-------------5-7-|-----------------|-----------------|
|-5---------------|-----------------|-5-------------5-|-5---------------|
  Q   Q   E E Q     Q   Q   Q   E E   Q   H       E E   Q   E E H

                                                                         x3
||------------------|-----------------|-----------------|------------------||
||o-----------7-9---|-10--9---7-------|-----------------|-----------------o||
||o-----------------|-------------5-7-|-----------------|-----------------o||
||--5---------------|-----------------|-5-------------5-|-5----------------||
    Q   Q   E E Q     Q   Q   Q   E E   Q   H       E E   Q   H.

Verse 1

|-----------------|-----------------|-----------------|-----5-7-5-------|
|-----------7-9---|-10--9---7-------|-----------------|-----------------|
|-----------------|-------------5-7-|-----------------|-----------------|
|-5---------------|-----------------|-5-------------5-|-5---------------|
  Q   Q   E E Q     Q   Q   Q   E E   Q   H       E E   Q   E E H

|-----------------|-----------------|-----------------|-----------------|
|-----------7-9---|-10--9---7-------|-----------------|-----------------|
|-----------------|-------------5-7-|-----------------|-----------------|
|-5---------------|-----------------|-5-------------5-|-5---------------|
  Q   Q   E E Q     Q   Q   Q   E E   Q   H       E E   Q   H.

|-----------------|-----------------|-----------------|-----------------|
|-----------7-9---|-10--9---7-------|-----------------|-----------------|
|-----------------|-------------5-7-|-----------------|-----------------|
|-5---------------|-----------------|-5-------------5-|-5---------5-7---|
  Q   Q   E E Q     Q   Q   Q   E E   Q   H       E E   Q   Q.    E Q

|-----------------|-----------------|-----------------|-----------------|
|-----------------|-----------------|-----------------|-----------------|
|-3---------------|---------1-------|-----------------|-----------------|
|-----------------|-2---4-----------|-1---------------|-0---------------|
  W                 Q   Q   H         W                 W

|-----------------|-----------------|-----------------|-----------------|
|-----------7-9---|-10--9---7-------|-----------------|-----------------|
|-----------------|-------------5-7-|-----------------|-----------------|
|-5---------------|-----------------|-5-------------5-|-5---------------|
  Q   Q   E E Q     Q   Q   Q   E E   Q   H       E E   Q   H.

|---------------7\|-5--/7-----------|-----------------|-----------------|
|-----------------|-----------------|-----------------|---------------3-|
|-5---------------|---------5-------|-5-------------5-|-5---5-----------|
|-----------------|-----------------|-----------------|-----3-----------|
  Q   H       E E   Q   Q   H         Q   H       E E   Q   H       E E

Chorus 1

|-----------------|-----------------|-----------------|-----------------|
|(3)--------------|---------1-------|-2-----2-----5---|(5)--------------|
|-----------------|-2---4-----------|-----------------|-----------------|
|-----------------|-----------------|-----------------|-----------------|
  W                 Q   Q   H         Q.    Q.    Q     W

|-----------------|-----------------|-----------------|-------------14--|
|-3---------------|-2---------------|-----------------|--------/14------|
|-----------------|-----------------|-5-------5-------|-5---------------|
|-----------------|-----------------|-----------------|-----------------|
  W                 W                 Q   Q   Q   Q     Q   Q   Q   Q

Interlude 1

||------------------|-----------------|-----------------|------------------||
||o-----------7-9---|-10--9---7-------|-----------------|-----------------o||
||o-----------------|-------------5-7-|-----------------|-----------------o||
||--5---------------|-----------------|-5-------------5-|-5----------------||
    Q   Q   E E Q     Q   Q   Q   E E   Q   H       E E   Q   H.

Verse 2 (Same as Verse 1)

|-----------------|-----------------|-----------------|-----5-7-5-------|
|-----------7-9---|-10--9---7-------|-----------------|-----------------|
|-----------------|-------------5-7-|-----------------|-----------------|
|-5---------------|-----------------|-5-------------5-|-5---------------|
  Q   Q   E E Q     Q   Q   Q   E E   Q   H       E E   Q   E E H

|-----------------|-----------------|-----------------|-----------------|
|-----------7-9---|-10--9---7-------|-----------------|-----------------|
|-----------------|-------------5-7-|-----------------|-----------------|
|-5---------------|-----------------|-5-------------5-|-5---------------|
  Q   Q   E E Q     Q   Q   Q   E E   Q   H       E E   Q   H.

|-----------------|-----------------|-----------------|-----------------|
|-----------7-9---|-10--9---7-------|-----------------|-----------------|
|-----------------|-------------5-7-|-----------------|-----------------|
|-5---------------|-----------------|-5-------------5-|-5---------5-7---|
  Q   Q   E E Q     Q   Q   Q   E E   Q   H       E E   Q   Q.    E Q

|-----------------|-----------------|-----------------|-----------------|
|-----------------|-----------------|-----------------|-----------------|
|-3---------------|---------1-------|-----------------|-----------------|
|-----------------|-2---4-----------|-1---------------|-0---------------|
  W                 Q   Q   H         W                 W

|-----------------|-----------------|-----------------|-----------------|
|-----------7-9---|-10--9---7-------|-----------------|-----------------|
|-----------------|-------------5-7-|-----------------|-----------------|
|-5---------------|-----------------|-5-------------5-|-5---------------|
  Q   Q   E E Q     Q   Q   Q   E E   Q   H       E E   Q   H.

|---------------7\|-5--/7-----------|-----------------|-----------------|
|-----------------|-----------------|-----------------|---------------3-|
|-5---------------|---------5-------|-5-------------5-|-5---5-----------|
|-----------------|-----------------|-----------------|-----3-----------|
  Q   H       E E   Q   Q   H         Q   H       E E   Q   H       E E

Chorus 2

|-----------------|-----------------|-----------------|-----------------|
|(3)--------------|---------1-------|-----------------|-----------------|
|-----------------|-2---4-----------|-----------------|-----------------|
|-----------------|-----------------|-0-----0-----3---|(3)--------------|
  W                 Q   Q   H         Q.    Q.    Q     W

|-----------------|-----------------|-----------------|-------------14--|
|-3---------------|-----------------|-----------------|--------/14------|
|---------3-------|-----------------|-5-------5-------|-5---------------|
|-------------1---|-0---------------|-----------------|-----------------|
  H       Q   Q     W                 Q   Q   Q   Q     Q   Q   Q   Q

Interlude 2

||------------------|-----------------|-----------------|------------------||
||o-----------7-9---|-10--9---7-------|-----------------|-----------------o||
||o-----------------|-------------5-7-|-----------------|-----------------o||
||--5---------------|-----------------|-5-------------5-|-5----------------||
    Q   Q   E E Q     Q   Q   Q   E E   Q   H       E E   Q   H.

Bridge

|-----------------|-----------------|-----------------|-----------------|
|-----------------|-5-----------5---|-----------------|-2-------5-------|
|-------------5---|-------5---------|-3-----------5---|-----------------|
|-3---------------|---------3-------|-----------------|-----------------|
  H       Q   Q     Q.    E Q   Q     H       Q   Q     H       H

|-----------------|-----------------|-----------------|---------2-------|
|-3---------3-----|-----------------|---------------2-|-3---------------|
|-------------3---|-0-----5-3-------|-5---------------|-----------------|
|-----------------|-----------------|-----------------|-----------------|
  H       E E Q     Q.    E H         Q   H       E E   H       H

|-----------------|-----------------|-----------------|-5-----------5---|
|-5---------5-----|-5-----5-----5---|-------------5---|-------5---------|
|-------------5---|---------5-------|-3---------------|---------3-------|
|-----------------|-----------------|-----------------|-----------------|
  H       E E Q     Q.    E Q   Q     H.          Q     Q.    E Q   Q

|-----------------|-----------------|-----------------|-----------------|
|-3-----------3---|-3-----3-----3---|-----------------|-3-----3---------|
|-----------------|---------3-------|-0-----5-3-------|---------0-------|
|-----------------|-----------------|-----------------|-----------------|
  H       Q   Q     Q.    E Q   Q     Q.    E H         Q.    E H

|-----------------|-5-----------5---|-----------------|-----------------|
|-------------5---|-------5---------|-3---------3-----|-------1---------|
|-3---------------|---------3-------|-------------3---|---------3-------|
|-----------------|-----------------|-----------------|-1-----------0---|
  H.          Q     Q.    E Q   Q     H       E E Q     Q.    E Q   Q

|-----------------|-----------------|-----------------|-------------3---|
|-----------------|-0-----------3---|-1-----------3---|-5---------------|
|-1-----------3---|-----------------|-----------------|-----------------|
|-----------------|-----------------|-----------------|-----------------|
  H.          Q     H.          Q     H.          Q     H.          Q    

|-----------------|---------4-------|-----------------|-----------------|
|-----------------|-----------------|-1-----------3---|-4---------------|
|-2---------------|-2---------------|-----------------|---------2-------|
|-----------------|-----------------|-----------------|-----------------|
  W                 H       H         H.          Q     H       H

|-----------------|-----------------|-----------------|-----------------|
|-2---------------|(2)--------------|-----------------|-----------------|
|-----------------|-----------------|-----------------|-----------------|
|-----------------|-----------------|-0---------------|(0)--------------|
  W                 W                 W                 W

|-----------------|-----------------|-----------------|-----------------|
|-----------------|-----------------|-----------------|-----------------|
|-3-------------3-|-3---------------|-3-------------3-|-3---------------|
|-----------------|-----------------|-----------------|-----0---3-3-5-3-|
  Q   H       E E   Q   Q   H         Q   H       E E   Q   Q   E E E E

Solo

|-----------------|-----------------|-----------------|-----------------|
|-----------------|-----------------|-----------------|-----------------|
|-3-------------3-|-3---------------|-3-------------3-|-3---------------|
|-----------------|-----------------|-----------------|-----0---3-3-5-3-|
  Q   H       E E   Q   Q   H         Q   H       E E   Q   Q   E E E E

|-----------------|-----------------|-----------------|-----------------|
|-----------------|-----------------|-----------------|-----------------|
|-3-------------3-|-3---------------|-3-------------3-|-3---------------|
|-----------------|-----------------|-----------------|-----0---3-3-5-3-|
  Q   H       E E   Q   Q   H         Q   H       E E   Q   Q   E E E E

|-----------------|-----------------|-----------------|-----------------|
|-----------------|-----------------|-----------------|-----------------|
|-3-------------3-|-3---------------|-3-------------3-|-3-----3---------|
|-----------------|-----------------|-----------------|---------0---2---|
  Q   H       E E   Q   Q   H         Q   H       E E   Q.    E Q   Q

|-----------------|-----------------|-----------------|-----------------|
|-----------------|-------------5---|-----------------|-----------------|
|-----------------|-----------------|-----------------|-------------2---|
|-3-------------3-|-3---------3-----|-3-------------3-|-3---------3-----|
  Q   H       E E   Q   Q   E E Q     Q   H       E E   Q   Q   E E Q   

|-----------------|-----------------|-----------------|-----------------|
|-----------------|-----------------|-----------------|-----------------|
|-3-------------3-|-3---------------|-3-------------3-|-3---------------|
|-----------------|-----------------|-----------------|-----0---3-3-5-3-|
  Q   H       E E   Q   Q   H         Q   H       E E   Q   Q   E E E E

|-----------------|-----------------|-----------------|-----------------|
|-----------------|------------/3---|-3-------------3-|-3-------------6-|
|-----------------|-----------------|-----------------|-3---------------|
|-1-------------1-|-1---------------|-----------------|-----------------|
  Q   H       E E   Q   Q   Q   Q     Q   Q   Q   E E   H.          E E

|-----------------|-----------------|-----------------|-----------------|
|(6)--------------|-----------------|-----------------|-----------------|
|-----------------|-5---------------|-----------------|-----------------|
|-----------------|-----------------|-3-----3-----6---|(6)--------------|
  W                 W                 Q.    Q.    Q     W

|-----------------|-----------------|-----------------|-----------------|
|-----------------|-----------------|-----------------|-----------------|
|---------0---2---|-----------------|-5-------5-------|-5-------5-------|
|-1---3-----------|-0---------------|-----------------|-----------------|
  Q   Q   Q   Q     W                 Q   Q   Q   Q     Q   Q   Q   Q

|-----------------|-----------------|
|-----------------|-----------------|
|-----------------|-----------------|
|-0-------0-------|-0---------0-----|
  Q   Q   Q   Q     Q   Q.    Q.

|-----------------|-----------------|-----------------|-----------------|
|-----------7-9---|-10--9---7-------|-----------------|-----------------|
|-----------------|-------------5-7-|-----------------|-----------------|
|-5---------------|-----------------|-5-------------5-|-5---------------|
  Q   Q   E E Q     Q   Q   Q   E E   Q   H       E E   Q   H.

Verse 3

|-----------------|-----------------|-----------------|-----5-7-5-------|
|-----------7-9---|-10--9---7-------|-----------------|-----------------|
|-----------------|-------------5-7-|-----------------|-----------------|
|-5---------------|-----------------|-5-------------5-|-5---------------|
  Q   Q   E E Q     Q   Q   Q   E E   Q   H       E E   Q   E E H

|-----------------|-----------------|-----------------|-----------------|
|-----------7-9---|-10--9---7-------|-----------------|-----------------|
|-----------------|-------------5-7-|-----------------|-----------------|
|-5---------------|-----------------|-5-------------5-|-5---------------|
  Q   Q   E E Q     Q   Q   Q   E E   Q   H       E E   Q   H.

|-----------------|-----------------|-----------------|-----------------|
|-----------7-9---|-10--9---7-------|-----------------|-----------------|
|-----------------|-------------5-7-|-----------------|-----------------|
|-5---------------|-----------------|-5-------------5-|-5---------------|
  Q   Q   E E Q     Q   Q   Q   E E   Q   H       E E   Q   H.

|-----------------|-----------------|-----------------|-----------------|
|-----------------|-----------------|-----------------|-----------------|
|-3---------------|---------1-------|---------0---2---|-----------------|
|-----------------|-2---4-----------|-1---3-----------|-0---------------|
  W                 Q   Q   H         Q   Q   Q   Q     W

|-----------------|-----------------|-----------------|-----------------|
|-----------7-9---|-10--9---7-------|-----------------|-----------------|
|-----------------|-------------5-7-|-----------------|-----------------|
|-5---------------|-----------------|-5-------------5-|-5---------------|
  Q   Q   E E Q     Q   Q   Q   E E   Q   H       E E   Q   H.

|---------------7\|-5--/7-----------|-----------------|-----------------|
|-----------------|-----------------|-----------------|---------------3-|
|-5---------------|---------5-------|-5-------------5-|-5---5-----------|
|-----------------|-----------------|-----------------|-----3-----------|
  Q   H       E E   Q   Q   H         Q   H       E E   Q   H       E E

Chorus 3

|-----------------|-----------------|-----------------|-----------------|
|(3)--------------|---------1-------|-2-----2-----5---|(5)--------------|
|-----------------|-2---4-----------|-----------------|-----------------|
|-----------------|-----------------|-----------------|-----------------|
  W                 Q   Q   H         Q.    Q.    Q     W

|-----------------|-----------------|-----------------|-----------------|
|-----------------|-----------------|-----------------|-----------------|
|---------0---2---|-----------------|-5---------------|-----------------|
|-1---3-----------|-0---------------|-------------2---|(2)----------1---|
  Q   Q   Q   Q     W                 H.          Q     H.          Q

|-----------------|-----------------|-----------------|-----------------|
|-----------------|---------0---1---|-2-----2-----5---|(5)--------------|
|-----------------|-2---4-----------|-----------------|-----------------|
|(1)--------------|-----------------|-----------------|-----------------|
  W                 Q   Q   Q   Q     Q.    Q.    Q     W

|-----------------|-----------------|-----------------|-----------------|
|-3---------------|-2---------------|-----------------|-----------------|
|-----------------|-----------------|-5-------5-------|-5-------5-------|
|-----------------|---------0-------|-----------------|-----------------|
  W                 H       H         Q   Q   Q   Q     Q   Q   Q   Q   

|-----------------|-----4/5-4-------|-----------------|-----------------||
|-----------------|-----------------|-----------------|-----------------||
|-5-------5-------|-----------------|-----------------|-----------------||
|-----------------|-----------0-----|-5-------------5-|-5---------------||
  Q   Q   Q   Q     Q   E E E Q.      Q   Q   Q   E E   Q   Q   H            
Submit corrections

↑ Back to top | Tablatures and chords for acoustic guitar and electric guitar, ukulele, drums are parodies/interpretations of the original songs. You may use it for private study, scholarship, research or language learning purposes only