Home » D » Dolly Parton »

Dolly Parton - Jolene Tabs

Artists:  A B C D E F G H I J K L M N O P Q R S T U V W X Y Z # 

Jolene Tabs

(ver. 1) Click to play this song!
Dolly Parton
[Intro]
  
  Am*                   
e|---------------------------------|
B|-------0-----0h1---0-----1p0-----| 
G|-0h2-------------------0-------0-| 
D|-----2-------0h2-----0-------0---|
A|-0-------0-------0-------0-------|
E|---------------------------------|


[Chorus]

  Am            C             G             Am*
e|-------------|-------------|-------------|---------------------------------|
B|---1-1-------|---1-------1-|---0-------0-|-------0-----0h1---0-----1p0-----|
G|-----------0-|-------0-----|---0---0-----|-0h2-------------------0-------0-|
D|---2-----2---|---2-----2---|---------0---|-----2-------0h2-----0-------0---|
A|-0---0-------|-3---3-------|-------------|-0-------0-------0-------0-------|
E|-------------|-------------|-3---3-------|---------------------------------|

  G                           Am*
e|-------------|-------------|---------------------------------|---------------------------------|
B|---0-------0-|---0-------0-|-------0-----0h1---0-----1p0-----|-------0-----0h1---0-----1p0-----|
G|---0---0-----|---0---0-----|-0h2-------------------0-------0-|-0h2-------------------0-------0-|
D|---------0---|---------0---|-----2-------0h2-----0-------0---|-----2-------0h2-----0-------0---| 
A|-------------|-------------|-0-------0-------0-------0-------|-0-------0-------0-------0-------|  
E|-3---3-------|-3---3-------|---------------------------------|---------------------------------|


[Verse]

  Am            C             G/B           Am            G
e|-------------|-------------|-------------|-------------|-------------|-------------|
B|---1--1------|---1-------0-|---0-------0-|---1-------0-|---0-------0-|---0-------0-|
G|-----------0-|-------0-----|-------0-----|-------2-----|---0---0-----|---0---0-----|
D|---2-----2---|---2-----2---|---0-----0---|---2-----2---|---------0---|---------0---|
A|-0----0------|-3---3-------|-2---2-------|-0---0-------|-------------|-------------|
E|-------------|-------------|-------------|-------------|-3---3-------|-3---3-------|

  Am*                   
e|---------------------------------|---------------------------------|
B|-------0-----0h1---0-----1p0-----|-------0-----0h1---0-----1p0-----|
G|-0h2-------------------0-------0-|-0h2-------------------0-------0-|
D|-----2-------0h2-----0-------0---|-----2-------0h2-----0-------0---|
A|-0-------0-------0-------0-------|-0-------0-------0-------0-------|
E|---------------------------------|---------------------------------|
            
Submit corrections

↑ Back to top | Tablatures and chords for acoustic guitar and electric guitar, ukulele, drums are parodies/interpretations of the original songs. You may use it for private study, scholarship, research or language learning purposes only