Home » D » Dolly Parton »

Dolly Parton - I Will Always Love You Bass

Artists:  A B C D E F G H I J K L M N O P Q R S T U V W X Y Z # 

I Will Always Love You Bass

(ver. 1) Click to play this song!
Dolly Parton
  Intro
G|----------------|----------------|----------------|----------------|
D|----------------|0---------------|----------------|----------------|
A|----------------|----------------|4---------------|2---------------|
E|----------------|----------------|----------------|----------------|

  Verse
G|----------------|------------1---|----------------|----------------|
D|----------------|----------------|4-----4-2-------|0-----0-2-----2-|
A|0-----0-0-------|0-----0-0-------|----------------|----------------|
E|----------------|----------------|----------------|----------------|

G|----------------|------------1---|----------------|----------------|
D|----------------|----------------|4-----4-2-----2-|0-----0-2-----2-|
A|0-----0-0-------|0-----0-0-------|----------------|----------------|
E|--------------0-|----------------|----------------|----------------|

  Chorus
G|------1---------|----------------|------1---------|----------------|
D|--------4-----2-|0-----0-2-----2-|--------4-----2-|0-----0-2-----2-|
A|0---------------|----------------|0---------------|----------------|
E|----------------|----------------|----------------|----------------|

G|----------------|----------------|
D|----------------|----------------|
A|0-----0-0-------|0-----0---------|
E|--------------2-|--------2-----2-|

  Verse
G|----------------|------------1---|----------------|----------------|
D|----------------|----------------|4-----4-2-------|0-----0-2-----2-|
A|0-----0-0-------|0-----0-0-------|----------------|----------------|
E|--------------0-|----------------|----------------|----------------|

G|----------------|----------------|----------------|----------------|
D|----------------|----------------|4-----4-2-----2-|0-----0-2-----2-|
A|0-----0-0-------|0-----2-4---4---|----------------|----------------|
E|--------------0-|----------------|----------------|----------------|

  Chorus
G|----------------|----------------|----------------|----------------|
D|----------------|----------------|4-----4-2-----2-|0-----0-2-----2-|
A|0-----0-0-------|0-----0-0-----4-|----------------|----------------|
E|----------------|----------------|----------------|----------------|

                                    Break
G|----------------|----------------|----------------|----------------|
D|----------------|----------------|4-----4-2-----2-|0-----0-2-----2-|
A|0-----0-0-------|0-----2-4---4---|----------------|----------------|
E|--------------2-|----------------|----------------|----------------|

G|----------------|
D|4-----4-2-----2-|
A|----------------|
E|----------------|

G|----------------|----------------|----------------|----------------|
D|0-----0-2-----2-|----------------|----------------|----------------|
A|----------------|----------------|----------------|2-----1---------|
E|----------------|4-----4-2-----2-|0-----0-2-----2-|--------4---2---|

                   Chorus
G|----------------|----------------|----------------|----------------|
D|----------------|----------------|----------------|----------------|
A|4---------------|2-----1---------|----------------|2---------------|
E|------0-2-----2-|--------4-----2-|0-----0-2-----2-|------2-4---2---|
 
                                                   Slow
G|----------------|----------------|----------------|----------------|
D|----------------|----------------|----------------|----------------|
A|4---------------|2-----1---------|------------1---|2-------4-------|
E|----0---4---2---|--------4-----2-|0-----0-2-------|----------------|

G|----------------|----------------|----------------|----------------|
D|----------------|----------------|----------------|----------------|
A|0---------------|----------------|----------------|----------------|
E|----------------|----------------|----------------|----------------|            
Submit corrections

↑ Back to top | Tablatures and chords for acoustic guitar and electric guitar, ukulele, drums are parodies/interpretations of the original songs. You may use it for private study, scholarship, research or language learning purposes only