Home » D » Dokken »

Dokken - It's Not Love Bass

Artists:  A B C D E F G H I J K L M N O P Q R S T U V W X Y Z # 

It's Not Love Bass

(ver. 1) Click to play this song!
Dokken
Album:Under Lock And Key
Bassist:Jeff Pilson

I recieved a request for this song. Sorry it took a while to get 
up. Awesome song though. This is how I play the song, if it's not 
100% correct, it'll deffinately sound it.

Key:
b = bend
/ = slide up
> = slide down
x = times a number
* = let it ring

Intro part 1
Gb:2/14b*----------------------------------------------------------|
Db:--------------14-13-12*-----------------------------------------|
Ab:---------12*---------------------7-6-5--5-5-5-5------------7-6-5|
Eb:-------------------------17>5x21----------------0-3-4-5x21------|

Intro part 2
Gb:-------------------------------|
Db:-------------------------------|
Ab:------------------------5*--3-2|
Eb:5x29-0-3-4-5x15-0*--3-4--------|

Verse
Gb:------------------------------------|
Db:------------------------------------|
Ab:-----7-6-5--5-5-5-5------------7-6-5|
Eb:5x21----------------0-3-4-5x21------|

Chorus
Gb:----------------------------------------------|
Db:----------------------------------------------|
Ab:-----7-6-5--5-5-5-5--------------------5*--3-2|
Eb:5x21----------------0-3-4-5x15-0*--3-4--------|

"Why, baby, why..." part 1
Gb:----------------------------------|
Db:----------5------4----------------|
Ab:--------5------4------------------|
Eb:5x24-3------2------0-5x15-3*--1*--|

After Chorus
Gb:-------------------------|
Db:-------------------------|
Ab:-----7-6-5--5-5-5-5------|
Eb:5x21----------------0-3-4|

Verse

Chorus

"Why, baby, why..." part 2
Gb:--------------------------------|
Db:----------5------4--------------|
Ab:--------5------4----------------|
Eb:5x24-3------2------0-5x24-3--3-5|

Bridge
Gb:------------------|------------------|-------------------------|
Db:------------------|----------------7*|-------------------------|
Ab:5-5-5-5*--3-3-2---|5-5-5-5*--3-2-0---|5-5-5-5*--3-3-2--------7*|
Eb:----------------5*|------------------|----------------5*--3*---|

Solo
Gb:------------------------|
Db:------------------------|
Ab:------------------------|
Eb:5x29-0-3-4-5x15-3*--1*--|

After Solo
Gb:-----------------------------------------------------------------|
Db:------14-13-12--12-12-12-12-12-12-12-----------------------------|
Ab:12x21----------------------------------------7-6-5--5-5-5-5-5-5-5|
Eb:-------------------------------------17>5x21---------------------|

Gb:------------------------------------|
Db:------------------------------------|
Ab:-----7-6-5--5-5-5-5-5-5-5------7-6-5|
Eb:5x21----------------------5x21------|

Chorus

"Why, baby, why..." part 1

End
Just basically play the 5th fret on Eb or an open Ab.

Thats it. Not an easy song if you're just starting out. Once you 
listen to the song, you'll hear everything. I musta listened 
to it like 15-30 times. Any questions or comments, e-mail me 
            
Submit corrections

↑ Back to top | Tablatures and chords for acoustic guitar and electric guitar, ukulele, drums are parodies/interpretations of the original songs. You may use it for private study, scholarship, research or language learning purposes only