Home » D » Dokken »

Dokken - Dream Warriors Bass

Artists:  A B C D E F G H I J K L M N O P Q R S T U V W X Y Z # 

Dream Warriors Bass

(ver. 1) Click to play this song!
Dokken
INTRO:
       (Rest x12)
D# |-----------------|
A# |-----------------|
F  |-----------------|
C  |-r---------------|
     1 & 2 & 3 & 4 &
 
    <
D# |-----------------|-----------------|-----------------|-----------------|-----------------|
A# |-----------------|-----------------|-----------------|-----------------|-----------------|
F  |-----------------|-----------------|-----------------|-----------------|-----------------|
C  |-9-9-9-9-9-9-9-9-|-9-9-9-9-9-9-9-9-|-9-9-9-9-9-9-9\0-|(0)2-2-----------|(2)--------2/15\-|
     1 & 2 & 3 & 4 &   1 & 2 & 3 & 4 &   1 & 2 & 3 & 4 &   1 & 2 & 3 & 4 &   1 & 2 & 3 & 4 &


PRE-VERSE (x2):                                           ----------------- -----------------
                                                         /1                /2
D# |-----------------|-----------------|-----------------|-----------------|-----------------|
A# |-----------------|-----------------|-----------------|-----------------|-----------------|
F  |-4-4-4-4-4-4-4-4-|-4-4-4-4-4-4-4-4-|-4-4-4-4-4-4-4-\-|-------------0-2-|-------------2-3-|
C  |-----------------|-----------------|-----------------|-0---2-2---2-----|-0---2-2---4-----|
     1 & 2 & 3 & 4 &   1 & 2 & 3 & 4 &   1 & 2 & 3 & 4 &   1 & 2 & 3 & 4 &   1 & 2 & 3 & 4 &


VERSE 1 (x2):                                             ----------------- -----------------
                                                         /1                /2
D# |-----------------|-----------------|-----------------|-----------------|-----------------|
A# |-----------------|-----------------|-----------------|-----------------|-----------------|
F  |-4-4-4-4-4-4-4-4-|-4-4-4-4-4-4-4-4-|-4-4-4-4-4-4-4-\-|-------------0-2-|-------------2-3-|
C  |-----------------|-----------------|-----------------|-0---2-2---2-----|-0---2-2---4-----|
     1 & 2 & 3 & 4 &   1 & 2 & 3 & 4 &   1 & 2 & 3 & 4 &   1 & 2 & 3 & 4 &   1 & 2 & 3 & 4 &


PRE-CHORUS:

D# |-----------------|-----------------|-----------------|-----------------|
A# |-----------------|-----------------|-----------------|-----------------|
F  |-4-4-4-4-4-4-4-4-|-4-4-4-4-4-4-4-4-|-4-4-4-4-4-4-4-\-|-------------0-2-|
C  |-----------------|-----------------|-----------------|-0---2-2---2-----|
     1 & 2 & 3 & 4 &   1 & 2 & 3 & 4 &   1 & 2 & 3 & 4 &   1 & 2 & 3 & 4 &

D# |-----------------|-----------------|
A# |-----------------|-----------------|
F  |-4-4-4-4-4-4-4-4-|-4-4-4-4-4-4-4-\-|
C  |-----------------|-----------------|
     1 & 2 & 3 & 4 &   1 & 2 & 3 & 4 &

D# |-----------------|-----------------|-----------------|-----------------|
A# |-----------------|-----------------|-----------------|-----------------|
F  |-----------------|-----------------|-----------------|-2-------3-------|
C  |-4---4-4-4-4-4-4-|-4-4-4-4-4-4-4-4-|-4---4-4-4-4-4-4-|-----------------|
     1 & 2 & 3 & 4 &   1 & 2 & 3 & 4 &   1 & 2 & 3 & 4 &   1 & 2 & 3 & 4 &


CHORUS 1:

D# |-----------------|-----------------|-----------------|-----------------|
A# |-----------------|-----------------|-----------------|-----------------|
F  |-4-4-4-4-4-4-2-0-|(0)0---2---------|-------------0-2-|(2)2-----2---2-/-|
C  |-----------------|-----4-----0-2-4-|-5-5-5-5-5-4-----|-----------------|
     1 & 2 & 3 & 4 &   1 & 2 & 3 & 4 &   1 & 2 & 3 & 4 &   1 & 2 & 3 & 4 &

D# |-----------------|-----------------|-----------------|-----------------|
A# |-----------------|-----------------|-----------------|-----------------|
F  |-4-4-4-4-4-7---0-|(0)0---2---------|-----------------|-------2-----2-3-|
C  |-------------4---|-----4-----0-2-4-|-5-5-5-5-5-5-5-4-|-0---0-----4-----|
     1 & 2 & 3 & 4 &   1 & 2 & 3 & 4 &   1 & 2 & 3 & 4 &   1 & 2 & 3 & 4 &

D# |-----------------|-----------------|
A# |-----------------|-----------------|
F  |-4-4-4-4-4-4-2-0-|(0)0---2---2/9-\-|
C  |-----------------|-----4-----------|
     1 & 2 & 3 & 4 &   1 & 2 & 3 & 4 &


VERSE 2 (x2):                                             ----------------- -----------------
                                                         /1                /2
D# |-----------------|-----------------|-----------------|-----------------|-----------------|
A# |-----------------|-----------------|-----------------|-----------------|-----------------|
F  |-4-4-4-4-4-4-4-4-|-4-4-4-4-4-4-4-4-|-4-4-4-4-4-4-4-\-|-------------0-2-|-------------2-3-|
C  |-----------------|-----------------|-----------------|-0---2-2---2-----|-0---2-2---4-----|
     1 & 2 & 3 & 4 &   1 & 2 & 3 & 4 &   1 & 2 & 3 & 4 &   1 & 2 & 3 & 4 &   1 & 2 & 3 & 4 &


PRE-CHORUS:

D# |-----------------|-----------------|-----------------|-----------------|
A# |-----------------|-----------------|-----------------|-----------------|
F  |-4-4-4-4-4-4-4-4-|-4-4-4-4-4-4-4-4-|-4-4-4-4-4-4-4-\-|-------------0-2-|
C  |-----------------|-----------------|-----------------|-0---2-2---2-----|
     1 & 2 & 3 & 4 &   1 & 2 & 3 & 4 &   1 & 2 & 3 & 4 &   1 & 2 & 3 & 4 &

D# |-----------------|-----------------|
A# |-----------------|-----------------|
F  |-4-4-4-4-4-4-4-4-|-4-4-4-4-4-4-4-\-|
C  |-----------------|-----------------|
     1 & 2 & 3 & 4 &   1 & 2 & 3 & 4 &

D# |-----------------|-----------------|-----------------|-----------------|
A# |-----------------|-----------------|-----------------|-----------------|
F  |-----------------|-----------------|-----------------|-2-------3-------|
C  |-4---4-4-4-4-4-4-|-4-4-4-4-4-4-4-4-|-4---4-4-4-4-4-4-|-----------------|
     1 & 2 & 3 & 4 &   1 & 2 & 3 & 4 &   1 & 2 & 3 & 4 &   1 & 2 & 3 & 4 &


CHORUS 2:

D# |-----------------|-----------------|-----------------|-----------------|
A# |-----------------|-----------------|-----------------|-----------------|
F  |-4-4-4-4-4-4-2-0-|(0)0---2---------|-------------0-2-|(2)2-----2---2-/-|
C  |-----------------|-----4-----0-2-4-|-5-5-5-5-5-4-----|-----------------|
     1 & 2 & 3 & 4 &   1 & 2 & 3 & 4 &   1 & 2 & 3 & 4 &   1 & 2 & 3 & 4 &

D# |-----------------|-----------------|-----------------|-----------------|
A# |-----------------|-----------------|-----------------|-----------------|
F  |-4-4-4-4-4-7---0-|(0)0---2---------|-----------------|-------2-----2-3-|
C  |-------------4---|-----4-----0-2-4-|-5-5-5-5-5-5-5-4-|-0---0-----4-----|
     1 & 2 & 3 & 4 &   1 & 2 & 3 & 4 &   1 & 2 & 3 & 4 &   1 & 2 & 3 & 4 &

D# |-----------------|-----------------|-----------------|-----------------|
A# |-----------------|-----------------|-----------------|-----------------|
F  |-4-4-4-4-4-4-2-0-|(0)0---2---------|-------------0-2-|(2)2---2-2-------|
C  |-----------------|-----4-----0-2-4-|-5-5-5-5-5-4-----|-----------0-2-4-|
     1 & 2 & 3 & 4 &   1 & 2 & 3 & 4 &   1 & 2 & 3 & 4 &   1 & 2 & 3 & 4 &

D# |-----------------|-----------------|
A# |-----------------|-----------------|
F  |-----------------|-----------------|
C  |-5-5-5-5-5-5-5-/-|-7-------8-------|
     1 & 2 & 3 & 4 &   1 & 2 & 3 & 4 &


GUITAR SOLO:

D# |-----------------|-----------------|-----------------|-----------------|
A# |-----------------|-----------------|-----------------|-----------------|
F  |-4-4-4-4-4-4-4-2-|-0-0-0-0-0-0-0---|---------------0-|-2-2-2-2-2-2-2-3-|
C  |-----------------|---------------4-|-0-0-0-0-0-0-0---|-----------------|
     1 & 2 & 3 & 4 &   1 & 2 & 3 & 4 &   1 & 2 & 3 & 4 &   1 & 2 & 3 & 4 &

D# |-----------------|-----------------|-----------------|-----------------|
A# |-----------------|-----------------|-----------------|-----------------|
F  |-4-4-4-4-4-4-4-2-|-0-0-0-0-0-0-0---|-------------0-1-|-2-2-2-2-3-3-3-3-|
C  |-----------------|---------------4-|-2-2-2-2-2-2-----|-----------------|
     1 & 2 & 3 & 4 &   1 & 2 & 3 & 4 &   1 & 2 & 3 & 4 &   1 & 2 & 3 & 4 &

D# |-----------------|-----------------|-----------------|-----------------|
A# |-----------4-6---|-----------------|-----------------|-----------------|
F  |-4-4-4-6-7-----0-|(0)0-0---0-0-0---|-----------0-1-2-|(2)2---3---3-3-0-|
C  |-----------------|---------------4-|-0-0-0-0-4-------|-----4-----------|
     1 & 2 & 3 & 4 &   1 & 2 & 3 & 4 &   1 & 2 & 3 & 4 &   1 & 2 & 3 & 4 &

D# |-----------------|-----------------|-----------------|-----------------|
A# |-----------4-6---|-----------------|-----------------|-----------------|
F  |-4-4-4-6-7-----0-|(0)0---2---2-2-/-|-7-7-7-6-6-6-4-2-|-4-r-----4---2---|
C  |-----------------|-----4-----------|-----------------|-----------------|
     1 & 2 & 3 & 4 &   1 & 2 & 3 & 4 &   1 & 2 & 3 & 4 &   1 & 2 & 3 & 4 &


BRIDGE:

D# |-----------------|-----------------|-----------------|-----------------|
A# |-----------------|-----------------|-----------------|-----------------|
F  |-0-0-0-0-0-0-0-0-|-0-0-0-0-0-0-0-0-|-2-2-2-2-2-2-2-2-|-2---------------|
C  |-----------------|-----------------|-----------------|---0-0-1-1-2-2-4-|
     1 & 2 & 3 & 4 &   1 & 2 & 3 & 4 &   1 & 2 & 3 & 4 &   1 & 2 & 3 & 4 &

D# |-----------------|-----------------|-----------------|-----------------|
A# |-----------------|-----------------|-----------------|-----------------|
F  |-0-0-0-0-0-0-0-0-|-0-0-0-0-0-0-0-1-|-2-2-2-2-2-2-2-2-|-2-------3-------|
C  |-----------------|-----------------|-----------------|-----------------|
     1 & 2 & 3 & 4 &   1 & 2 & 3 & 4 &   1 & 2 & 3 & 4 &   1 & 2 & 3 & 4 &


CHORUS 3 (x2):

D# |-----------------|-----------------|-----------------|-----------------|
A# |-----------------|-----------------|-----------------|-----------------|
F  |-4-4-4-4-4-4-2-0-|(0)0---2---------|-0-0-0-0-0---0-2-|(2)2-----2---2-/-|
C  |-----------------|-----4-----0-2-4-|-----------4-----|-----------------|
     1 & 2 & 3 & 4 &   1 & 2 & 3 & 4 &   1 & 2 & 3 & 4 &   1 & 2 & 3 & 4 &

D# |-----------------|-----------------|-----------------|-----------------|
A# |-----------------|-----------------|-----------------|-----------------|
F  |-4-4-4-4-4-7---0-|(0)0---2---------|-0-0-0-0-0-0-0---|-------2-----2-3-|
C  |-------------4---|-----4-----0-2-4-|---------------4-|-0---0-----4-----|
     1 & 2 & 3 & 4 &   1 & 2 & 3 & 4 &   1 & 2 & 3 & 4 &   1 & 2 & 3 & 4 &


OUTRO (Repeat to fade-out):

D# |-----------------|-----------------|-----------------|-----------------|
A# |-----------------|-----------------|-----------------|-----------------|
F  |-4-4-4-4-4-4-2-0-|(0)0---2---------|-0-0-0-0-0---0-2-|(2)2-----2---2-/-|
C  |-----------------|-----4-----0-2-4-|-----------4-----|-----------------|
     1 & 2 & 3 & 4 &   1 & 2 & 3 & 4 &   1 & 2 & 3 & 4 &   1 & 2 & 3 & 4 &

D# |-----------------|-----------------|-----------------|-----------------|
A# |-----------------|-----------------|-----------------|-----------------|
F  |-4-4-4-4-4-7---0-|(0)0---2---------|-0-0-0-0-0-0-0---|-------2-2-------|
C  |-------------4---|-----4-----0-2-4-|---------------4-|-0---0-----0-2-4-|
     1 & 2 & 3 & 4 &   1 & 2 & 3 & 4 &   1 & 2 & 3 & 4 &   1 & 2 & 3 & 4 &            
Submit corrections

↑ Back to top | Tablatures and chords for acoustic guitar and electric guitar, ukulele, drums are parodies/interpretations of the original songs. You may use it for private study, scholarship, research or language learning purposes only