» » »

Does - Guren Tabs

Artists:  A B C D E F G H I J K L M N O P Q R S T U V W X Y Z # 

Guren Tabs

(ver. 1) Click to play this song!
Does
 Rating:
3.6/5 (21 vote)

 Guren  lessons Tabs too difficult? Try these video lessons and learn fast
 
                Standard Tuning
(Overdriven guitar)

Use bridge pickup
Treble 10           << those three are just base, try to modify them until you get the sound
Middle 4
Bass 6

Intro:

E|-------------------|
B|-------------------|
G|-----7--9--11------|
D|--9--7--9--11------|
A|--9--5--7--9-------|
E|--7----------------|

Riff:

E|---------------------------------------------------------------------------|
B|---------------------------------------------------------------------------|
G|--9--9--9--11--9--11--11--11--9--11--13--13--13--11--9--9--9--8------------|
D|--9--9--9--11--9--11--11--11--9--11--13--13--13--11--9--9--9--8----11--11--|
A|--7--7--7--9---7--9---9---9---7--9---11--11--11--9---7--7--7--6----11--11--|
E|-------------------------------------------------------------------9---9---|


   Akari ga areba kage            ga dekiru to itta

E|----------------------------------------------------|
B|----------------------------------------------------|
G|----------------------------------------------------|
D|--11--11----11--11--11--11------7--7----7--7--9--9--|
A|--11--11----11--11--11--11------7--7----7--7--9--9--|
E|--9---9-----9---9---9---9-------5--5----5--5--7--7--|

   Ano hi no kimi no koe          ga wasurerarezu ni

E|----------------------------------------------------|
B|----------------------------------------------------|
G|----------------------------------------------------|
D|--11--11----11--11--11--11------7--7----7--7--9--9--|
A|--11--11----11--11--11--11------7--7----7--7--9--9--|
E|--9---9-----9---9---9---9-------5--5----5--5--7--7--|


   Tsuyoku aritai to negai          Rousoku wo kesh*ta yubi

E|--------------------------------------------------------------------|
B|--8/10--9--------------------------------9--------------------------|
G|-----------9--9--11--9--11-----9--8--11-----11--8---------9--11--9--|
D|---------------------------------------------------9--11------------|
A|--------------------------------------------------------------------|
E|--------------------------------------------------------------------|


   Hi no atsusa ni inochi wo oboete          Boku no koa ga hajikeru

E|----------------------------------------------------------------------------------------|
B|--8/10--9--------------------------------9----------------------------------------------|
G|-----------9--9--11--9--11-----9--8--11-----11--8---------9--11-------------------------|
D|---------------------------------------------------9--11------------7--6----11--10--10--|
A|--------------------------------------------------------------------7--6----11--10--10--|
E|--------------------------------------------------------------------5--4----9---8---8---|

 Guren no ai ga   kokoro wo yaite   Kaze ni mayoeba   namida ga ochiru

E|--------------------------------------------------------------|
B|--------------------------------------------------------------|
G|--6--6--6--6--------------------9--9--9--9--------------------|
D|--6--6--6--6--7--7--7--7--7--7--9--9--9--9--9--9--9--9--9--9--|
A|--4--4--4--4--7--7--7--7--7--7--7--7--7--7--9--9--9--9--9--9--|
E|--------------5--5--5--5--5--5--------------7--7--7--7--7--7--|


   Kizu tsuki nagara   mirai shinjite    Mata saki e sono saki e      ikou

E|--------------------------------------------------------------------------|
B|--------------------------------------------------------------------------|
G|--6--6--6--6--------------------9--9--9--9--------------------------------|
D|--6--6--6--6--7--7--7--7--7--7--9--9--9--9--9--9--9--9--9--9--------7--6--|
A|--4--4--4--4--7--7--7--7--7--7--7--7--7--7--9--9--9--9--9--9--------7--6--|
E|--------------5--5--5--5--5--5--------------7--7--7--7--7--7--------5--4--|

  Gareki no sora wa   bokura no kizuna    Osou mayakashi   kechirash*te yaru

E|--------------------------------------------------------------|
B|--------------------------------------------------------------|
G|--6--6--6--6--------------------9--9--9--9--------------------|
D|--6--6--6--6--7--7--7--7--7--7--9--9--9--9--9--9--9--9--9--9--|
A|--4--4--4--4--7--7--7--7--7--7--7--7--7--7--9--9--9--9--9--9--|
E|--------------5--5--5--5--5--5--------------7--7--7--7--7--7--|


Tatakai no hate ni   nanimo nakutemo    Mata saki e sono saki e         ikou

E|-------------------------------------------------------------------------------|
B|-------------------------------------------------------------------------------|
G|--6--6--6--6--------------------9--9--9--9---------------------------------6---|
D|--6--6--6--6--7--7--7--7--7--7--9--9--9--9--9--9--9--9--9--9--------7--6---6---|
A|--4--4--4--4--7--7--7--7--7--7--7--7--7--7--9--9--9--9--9--9--------7--6---4---|
E|--------------5--5--5--5--5--5--------------7--7--7--7--7--7--------5--4-------|            
Submit corrections


        Guren  lessons Hard to play? Try these video lessons and learn fast Guren  lessons
        
↑ Back to top | Tablatures and chords for acoustic guitar and electric guitar, ukulele, drums are parodies/interpretations of the original songs. You may use it for private study, scholarship, research or language learning purposes only