» » »

Dodie Clark - Burned Out Tabs

Artists:  A B C D E F G H I J K L M N O P Q R S T U V W X Y Z # 

Burned Out Tabs

(ver. 1) Click to play this song!
Dodie Clark
 Rating:
4.3/5 (10 votes)

 Burned Out lessons Tabs too difficult? Try these video lessons and learn fast
 
                [Intro]

e|------------------------------------------------------|
B|------------------------------------------------------|
G|------------------------------------------------------|
D|----3-3---3-3---3-3---3-3---3-3---3-3---3-3---3-3-----|  x2
A|---3-----3-----3-----3-----4-----4-----4-----4--------|
E|------------------------------------------------------|


[Verse]
   He was certain, So was I
e|-----------------------------|
B|-----------------------------|
G|-----------------------------|
D|----3-3---3-3---3-3---3-3----|
A|---3-----3-----3-----3-------|
E|-----------------------------|

 There was comfort, In her sighs
e|-----------------------------|
B|-----------------------------|
G|-----------------------------|
D|----3-3---3-3---3-3---3-3----|
A|---4-----4-----4-----4-------|
E|-----------------------------|

Dreams and ideas should not be the same thing
e|-----------------------------|
B|-----------------------------|
G|-----------------------------|
D|----3-3---3-3---3-3---3-3----|
A|---1-----1-----1-----1-------|
E|-----------------------------|

You waited, Smiling for this?
e|-----------------------------|
B|-----------------------------|
G|-----------------------------|
D|----3-3---3-3---2-2---2-2----|
A|---3-----3-----3-----3-------|
E|-----------------------------|

 Oh she'd want it, If she knew
e|-----------------------------|
B|-----------------------------|
G|-----------------------------|
D|----3-3---3-3---3-3---3-3----|
A|---3-----3-----3-----3-------|
E|-----------------------------|

She could take it, I thought too
e|-----------------------------|
B|-----------------------------|
G|-----------------------------|
D|----3-3---3-3---3-3---3-3----|
A|---4-----4-----4-----4-------|
E|-----------------------------|

Be careful be cautious but you just wished harder
e|-----------------------------|
B|-----------------------------|
G|-----------------------------|
D|----3-3---3-3---3-3---3-3----|
A|---1-----1-----1-----1-------|
E|-----------------------------|

You waited, Smiling for this?
e|-----------------------------|
B|-----------------------------|
G|-----------------------------|
D|----3-3---3-3---2-2---2-2----|
A|---3-----3-----3-----3-------|
E|-----------------------------|


[Chorus]

But they love you, Over and over
e|-----------------------------|
B|-----------------------------|
G|-----------------------------|
D|----3-3---3-3---3-3---3-3----|
A|---3-----3-----3-----3-------|
E|-----------------------------|

They love you, Thousands and thousands of
e|-----------------------------|
B|-----------------------------|
G|-----------------------------|
D|----3-3---3-3---3-3---3-3----|
A|---1-----1-----1-----1-------|
E|-----------------------------|

  Eyes just like mine, Aching to find who they
e|-----------------------------|
B|-----------------------------|
G|-----------------------------|
D|----3-3---3-3---3-3---3-3----|
A|---0-----0-----0-----0-------|
E|-----------------------------|

  Are
e|-----------------------------|
B|-----------------------------|
G|-----------------------------|
D|----2-2---2-2---2-2---2-2----|
A|---3-----3-----3-----3-------|
E|-----------------------------|

Oh they love you, Oh you can feel how they
e|-----------------------------|
B|-----------------------------|
G|-----------------------------|
D|----3-3---3-3---3-3---3-3----|
A|---3-----3-----3-----3-------|
E|-----------------------------|

 Love you, Coated and warm but that's
e|-----------------------------|
B|-----------------------------|
G|-----------------------------|
D|----3-3---3-3---3-3---3-3----|
A|---1-----1-----1-----1-------|
E|-----------------------------|

All they can do, Words only get through if they're
e|-----------------------------|
B|-----------------------------|
G|-----------------------------|
D|----3-3---3-3---3-3---3-3----|
A|---0-----0-----0-----0-------|
E|-----------------------------|

  Sharp
e|-----------------------------|
B|-----------------------------|
G|-----------------------------|
D|----2-2---2-2---2-2---2-2----|
A|---3-----3-----3-----3-------|
E|-----------------------------|


[Verse]
  Oh how fitting, For one so fake
e|-----------------------------|
B|-----------------------------|
G|-----------------------------|
D|----3-3---3-3---3-3---3-3----|
A|---3-----3-----3-----3-------|
E|-----------------------------|

  Make me fairy, Whatever it takes
e|-----------------------------|
B|-----------------------------|
G|-----------------------------|
D|----3-3---3-3---3-3---3-3----|
A|---4-----4-----4-----4-------|
E|-----------------------------|

  And just like her tale, My dream was a scam
e|-----------------------------|
B|-----------------------------|
G|-----------------------------|
D|----3-3---3-3---3-3---3-3----|
A|---1-----1-----1-----1-------|
E|-----------------------------|

You waited, Smiling for this?
e|-----------------------------|
B|-----------------------------|
G|-----------------------------|
D|----3-3---3-3---2-2---2-2----|
A|---3-----3-----3-----3-------|
E|-----------------------------|

  I am burned out, I smell of smoke
e|-----------------------------|
B|-----------------------------|
G|-----------------------------|
D|----3-3---3-3---3-3---3-3----|
A|---3-----3-----3-----3-------|
E|-----------------------------|

  It seeps through her cracks, And so I start to choke
e|-----------------------------|
B|-----------------------------|
G|-----------------------------|
D|----3-3---3-3---3-3---3-3----|
A|---4-----4-----4-----4-------|
E|-----------------------------|

Sentences sit in her mouth that are templated
e|-----------------------------|
B|-----------------------------|
G|-----------------------------|
D|----3-3---3-3---3-3---3-3----|
A|---1-----1-----1-----1-------|
E|-----------------------------|

You waited, Smiling for this?
e|-----------------------------|
B|-----------------------------|
G|-----------------------------|
D|----3-3---3-3---2-2---2-2----|
A|---3-----3-----3-----3-------|
E|-----------------------------|


[Chorus]

But they love you, Over and over
e|-----------------------------|
B|-----------------------------|
G|-----------------------------|
D|----3-3---3-3---3-3---3-3----|
A|---3-----3-----3-----3-------|
E|-----------------------------|

They love you, Thousands and thousands of
e|-----------------------------|
B|-----------------------------|
G|-----------------------------|
D|----3-3---3-3---3-3---3-3----|
A|---1-----1-----1-----1-------|
E|-----------------------------|

  Eyes just like mine, Aching to find who they
e|-----------------------------|
B|-----------------------------|
G|-----------------------------|
D|----3-3---3-3---3-3---3-3----|
A|---0-----0-----0-----0-------|
E|-----------------------------|

  Are
e|-----------------------------|
B|-----------------------------|
G|-----------------------------|
D|----2-2---2-2---2-2---2-2----|
A|---3-----3-----3-----3-------|
E|-----------------------------|

Oh they love you, Oh you can feel how they
e|-----------------------------|
B|-----------------------------|
G|-----------------------------|
D|----3-3---3-3---3-3---3-3----|
A|---3-----3-----3-----3-------|
E|-----------------------------|

 Love you, Coated and warm but that's
e|-----------------------------|
B|-----------------------------|
G|-----------------------------|
D|----3-3---3-3---3-3---3-3----|
A|---1-----1-----1-----1-------|
E|-----------------------------|

All they can do, Words only get through if they're
e|-----------------------------|
B|-----------------------------|
G|-----------------------------|
D|----3-3---3-3---3-3---3-3----|
A|---0-----0-----0-----0-------|
E|-----------------------------|

  Sharp
e|-----------------------------|
B|-----------------------------|
G|-----------------------------|
D|----2-2---2-2---2-2---2-2----|
A|---3-----3-----3-----3-------|
E|-----------------------------|
            
Submit corrections


        Burned Out lessons Hard to play? Try these video lessons and learn fast Burned Out lessons
        
↑ Back to top | Tablatures and chords for acoustic guitar and electric guitar, ukulele, drums are parodies/interpretations of the original songs. You may use it for private study, scholarship, research or language learning purposes only