» » »

Doc Watson - Tennessee Rag Tabs

Artists:  A B C D E F G H I J K L M N O P Q R S T U V W X Y Z # 

Tennessee Rag Tabs

(ver. 1) Click to play this song!
Doc Watson
 Rating:
4/5 (4 votes)

 Tennessee Rag lessons Tabs too difficult? Try these video lessons and learn fast
 
                Tennessee Rag
Doc Watson




                                                            
E||------------0--1--2--|--3-5-3-0-3-5-3-0-3-5-3-0---0---0-|
B||---------------------|--------------------------4---4---|
G||---------------------|----------------------------------|
D||---------------------|----------------------------------|
A||---------------------|----------------------------------|
E||---------------------|----------------------------------|


                                                                 
-------------------------------|------------------------5--3----|
--1-----1----0-1-3-1-0---0-1---|----------1---1-3/5-3-5------5--|
-----2-----2-----------2-----2-|--0---0-2---2-------------------|
-------------------------------|----4---------------------------|
-------------------------------|--------------------------------|
-------------------------------|--------------------------------|


                                                              
---------7--7--3------0---|--3-5-3-0-3-5-3-0-3-5-3-0---0---0-|
--3-2-3-----------------6-|--------------------------4---4---|
--------------------------|----------------------------------|
--------------------------|----------------------------------|
--------------------------|----------------------------------|
--------------------------|----------------------------------|


                                                                 
-------------------------------|------------------------5--3----|
--1-----1----0-1-3-1-0---0-1---|----------1---1-3/5-3-5------5--|
-----2-----2-----------2-----2-|--0---0-2---2-------------------|
-------------------------------|----4---------------------------|
-------------------------------|--------------------------------|
-------------------------------|--------------------------------|


                                                           
-------------------0--1--2--|--3--3--3-5-3-0-0-0-0-0------|
--5-3--------3--------------|----------------4h5-4h5---3--|
------5-2-5-----5-----------|-----------------------------|
----------------------------|-----------------------------|
----------------------------|-----------------------------|
----------------------------|-----------------------------|


                                                          
------------------------|------------------------5--3----|
--1---3-1---------------|----------1---1-3/5-3-5------5--|
-----------3--2------2--|--0---0-2---2-------------------|
------------------------|----4---------------------------|
------------------------|--------------------------------|
------------------------|--------------------------------|


                                                         
---------7--7--3------0-1-|--3--3--3-5-3-0-0-0-0-0------|
--3-2-3-------------------|----------------4h5-4h5---3--|
--------------------------|-----------------------------|
--------------------------|-----------------------------|
--------------------------|-----------------------------|
--------------------------|-----------------------------|


                                                          
------------------------|------------------------5--3----|
--1---3-1---------------|----------1---1-3/5-3-5------5--|
-----------3--2------2--|--0---0-2---2-------------------|
------------------------|----4---------------------------|
------------------------|--------------------------------|
------------------------|--------------------------------|


                                               
---------------------0----|------------------||
--5-3--------3-------1----|------------------||
------5-2-5-----5----0----|------------------||
---------------------2----|------------------||
---------------------3----|------------------||
--------------------------|------------------||


            
Submit corrections


        Tennessee Rag lessons Hard to play? Try these video lessons and learn fast Tennessee Rag lessons
        
↑ Back to top | Tablatures and chords for acoustic guitar and electric guitar, ukulele, drums are parodies/interpretations of the original songs. You may use it for private study, scholarship, research or language learning purposes only