» » »

Doc Watson - Little Omie Wise Tabs

Artists:  A B C D E F G H I J K L M N O P Q R S T U V W X Y Z # 

Little Omie Wise Tabs

(ver. 1) Click to play this song!
Doc Watson
 Rating:
4.3/5 (23 votes)

 Little Omie Wise  lessons Tabs too difficult? Try these video lessons and learn fast
 
                Tuning: EADGBe
Capo 2

e|-----------------------5--3--0-------3-0---------------------------------------------|
B|-------1-0--3--5-------------------1-----3p1-----1-------1-------1--------1----------|
G|-----2---------------0-----------2-----------2-----2-------2--------2-------2--------|
D|---2---------------0-----------2---------------2-------2-------2--------2------------|
A|-0---------------2-----------0---------------0-------0-------0--------0--------------|
E|-------------------------------------------------------------------------------------|
                                                                          Oh
[|e|-------------------------------------------------------------------------------------|
[|B|-----1-------1-------1-------1-------0-------0-------0-------0-----------------------|
[|G|-------2-------2-------2-------2-------0-------0-------0-------0---------------------|
[|D|---2-------2-------2-------2-------0-------0-------0-------0-------------------------|
[|A|-0-------0-------0-------0-------2-------2-------2-------2---------------------------|
[|E|-------------------------------------------------------------------------------------|
     Listen to my...                 tell you no lies...
e|-------------------------------------------------------------------------------||]
B|-----1-------1-------1------1-------0-------0-------1-------1------1-------1---||]
G|-------2-------2-------2------2-------0-------0-------2-------2------2-------2-||] 
D|---2-------2-------2------2-------0-------0-------2-------2------2-------2-----||]
A|-0-------0-------0------0-------2-------2-------0-------0------0-------0-------||]
E|-------------------------------------------------------------------------------||]
Repeat for whole song            
Submit corrections


        Little Omie Wise  lessons Hard to play? Try these video lessons and learn fast Little Omie Wise  lessons
        
↑ Back to top | Tablatures and chords for acoustic guitar and electric guitar, ukulele, drums are parodies/interpretations of the original songs. You may use it for private study, scholarship, research or language learning purposes only