» » »

Doc Watson - Higher Ground Tabs

Artists:  A B C D E F G H I J K L M N O P Q R S T U V W X Y Z # 

Higher Ground Tabs

(ver. 1) Click to play this song!
Doc Watson
 Rating:
4/5 (4 votes)

 Higher Ground lessons Tabs too difficult? Try these video lessons and learn fast
 
                Higher Ground
Doc Watson

Start with
------3--
--3-3----
---------
---------
---------
---------

Play twice:
--7---7-5-3-0---3/5-3-0----3-7\5-3-5------3-7---7-5-3--0----3/5-3-0-------3--
--3-----5-3-1---3/5-3-0-3----0-----3--3-1---8---8-5-3--1--------1---3--------
--0---------0-----------0----0----------0---0----------0--------0---0--------
--------------------0---0----------0----0---0-------------------0------------
------------3-------------------------------------0-2--3------------0-2-3-4--
------------------------3----0-----------------------------------------------

--7-----------5-3----------------3-7---10--------------10----8---7----8----0---------
------3---1---------0---1-1-0--3-------12--0-1-------0-12---10---8---10----1--3---0--
----0---0---0-------0---0-0-0-----------0--0-----2---0----0----0---0-----0----0---0--
--0-------0-------0---0-2-2-0------------------0---0----------------------------0----
---------------------------------------------0-----------------------------3--2------
----------------3-------3---3--------------3-----2---3----------------------------3--

-------------5---8----0---1----2---8---7---5---7-----------10-10--6/7--3-------------
-------3-5/7----10--3--------------------------------------12-12--7/8--0-------------
----2-----------------0---1----2---9---7---5---7-0---------------------0-------------
--0-0------------0------0---0----0---0---0---0-------0-----------------0-----0-0--0--
---------------------------------------------------7---------------------------0--2--
----2--------------------------------------------------3---------------3---3-3-------

--7-5--3--0------------------3/5-3--0---------3--7-----------5--3-------------
----------1--------1-------------1-----3-------------3---1----------0---1--1--
----------0------0---0----0------0-----0-----------0---0---0--------0---0--0--
---------------------------------0---------------0----------------0---0-2--2--
----0--2--3--3-2-----2--0-----------------2-3-4-------------------------------
--3------------------------------------3------------------------3-------3-----

End song on a G chord.

            
Submit corrections


        Higher Ground lessons Hard to play? Try these video lessons and learn fast Higher Ground lessons
        
↑ Back to top | Tablatures and chords for acoustic guitar and electric guitar, ukulele, drums are parodies/interpretations of the original songs. You may use it for private study, scholarship, research or language learning purposes only