» » »

Doc Watson - Blue Ridge Mountain Blues Tabs

Artists:  A B C D E F G H I J K L M N O P Q R S T U V W X Y Z # 

Blue Ridge Mountain Blues Tabs

(ver. 1) Click to play this song!
Doc Watson
 Rating:
4/5 (4 votes)

 Blue Ridge Mountain Blues lessons Tabs too difficult? Try these video lessons and learn fast
 
                Blue Ridge Mountain Blues
Doc Watson


Capo 4th fret
                                                                             
E||---------------------|--------0--0--------0--0--|------------------------|
B||---------------------|--------1--1--------1--1--|-----------1------------|
G||---------------------|--------0--0--------0--0--|-----------0------------|
D||---------------------|--0h-2--------0h-2--------|--2h-0------------------|
A||-----------0----3----|--------------------------|--------3-----2----3----|
E||------3--------------|--------------------------|------------------------|


                                                                         
---------1-------------|-------0--0-------------|------------1--1-------|
---------0-------------|-------1--1-------------|------------0--0-------|
---------0--------0----|-------0--0-----0-------|------------0--0-------|
--0---------0----------|--0----------0----------|--0----0----------2----|
---------------2-------|------------------------|-----------------------|
-----------------------|-------------------3----|-----------------------|


                                                                         
-----------------------|-------0-------0--0--0--|-----------------------|
-----------------------|-------1-------1--1-----|-------1----1----------|
-------0---------------|-------0-------0--0-----|---------------2--0----|
--3---------2--0-------|------------2-----------|-----------------------|
------------------2----|--3---------------------|--3--------------------|
-----------------------|------------------------|-----------------------|


                                                                              
--------0--0--------0--0--|------------------------|-------1--1--------------|
--------1--1--------1--1--|-----------1------------|-------0--0--------------|
--------0--0--------0--0--|-----------0------------|-------0--0--------------|
--0h-2--------0h-2--------|--2--0------------------|--0----------0--2--0-----|
--------------------------|--------3-----2----3----|----------------------2--|
--------------------------|------------------------|-------------------------|


                                                                          
----------1-------------|------------1--1--------|-----------------------|
----------0-----0-------|------------0--0-----0--|-----------------------|
----------0-----0-------|------------0--0-----0--|-------0---------------|
-------0----------------|--0----0----------2-----|--3---------2--0-------|
-------------2-----3----|------------------------|------------------2----|
--3---------------------|------------------------|-----------------------|


                                                                            
-------0--0--------0--0--|------------------------|-------0--0-------0--0--|
-------1--1--------1--1--|-------------------1----|-------1--1-------1--1--|
-------0--0--------0--0--|----------------0-------|-------0--0-------0--0--|
-------------------------|-------------2----------|------------------------|
--3----------------------|--0h-3------------------|--3---------------------|
-------------0h-3--------|--------3---------------|-------------3----------|


                                                                          
-------0--0-------0--0--|-------------------1--1--|----------------------|
-------1--1-------1--1--|-------------------0--0--|----------------------|
-------0--0-------0--0--|-------------0h-2--------|--0-------------------|
------------------------|--------0----------------|----------------------|
--3---------------------|-----2-------------------|------------0----1----|
-------------3----------|--3----------------------|-------3--------------|


                                                                        
-----------------------|----------------------|------------------------|
---------------0--0----|-------0--------------|-------1----------------|
---------------0--0----|-------0--------------|-------0-------------0--|
-------0-------3--3----|-------3--------------|------------0--1--2-----|
--2--------------------|------------0----2----|--3---------------------|
------------3----------|--3-------------------|------------------------|


                                                                       
----------------------|-------0--0------------|-------0--0------------|
--1-------------------|-------1--1------------|-------1--1------------|
----------------------|-------0--0-------0----|-------0--0-------0----|
----------------------|-------------2---------|-------------2---------|
------------0----1----|--3--------------------|--3--------------------|
-------3--------------|-----------------------|-----------------------|


                                                                          
------------------------|-----------------------|-------1--1-------1--1--|
-------0-------------0--|-----------------------|-------0--0-------0--0--|
-------0----2--0--------|-----------------------|-------0--0-------0--0--|
------------------2-----|--0--0-----------------|-------------0----------|
------------------------|--------3----0----1----|--2---------------------|
--3---------------------|-----------------------|------------------------|


                                                                         
-------1--1------------|-------0--0--------0--0--|----------------------|
-------0--0------------|-------1--1--------1--1--|----------------------|
-------0--0------------|-------0--0--0h-2--------|--0-------------------|
-------------0----2----|-------------------------|----------------------|
-----------------------|-------------------------|------------0----2----|
--3--------------------|--3----------------------|-------3--------------|


                                                                             
-------0--0-------0--0--|-------0--0-------0--0--|--1--0--------------------|
-------1--1-------1--1--|-------1--1-------1--1--|--------3--1--0-----------|
-------0--0-------0--0--|-------0--0-------0--0--|-----------------0--2--0--|
-------------2----------|-------------2----------|--------------------------|
--3---------------------|--3---------------------|--------------------------|
------------------------|------------------------|--------------------------|


                                                                        
-------------------------|----------------------|----------------------|
-------------------------|-------0--------------|----------------------|
-------------------------|-------0--------------|-------0---------0----|
--3--2--0----------------|----------------------|-------0---------0----|
-----------3--2--0-------|------------0----1----|--2-------------------|
--------------------2----|--3-------------------|------------3---------|


                                                                        
-------0--0-------------|----------------------|-------0--0------------|
-------1--1-------------|-------1--------------|-------1--1------------|
-------0--0--2--0-------|-------0--------------|-------0--0-------0----|
-------------------3----|--2-------------------|-------------2---------|
--3---------------------|-----------------2----|--3--------------------|
------------------------|------------3---------|-----------------------|


                                                                        
----------------------|-------1------1--1--1--|-----1--1--1-------1----|
--1-------------------|-------1------1--1--1--|-----1--1--1-------1----|
-------0---------0----|-------2------2--2--2--|-----2--2--2-------2----|
------------2---------|--0----3---------------|--0-----------0---------|
----------------------|-----------------------|---------------------
            
Submit corrections


        Blue Ridge Mountain Blues lessons Hard to play? Try these video lessons and learn fast Blue Ridge Mountain Blues lessons
        
↑ Back to top | Tablatures and chords for acoustic guitar and electric guitar, ukulele, drums are parodies/interpretations of the original songs. You may use it for private study, scholarship, research or language learning purposes only