» » »

Doc Watson - Anniversary Blue Yodel - Blue Yodel 7 Tabs

Artists:  A B C D E F G H I J K L M N O P Q R S T U V W X Y Z # 

Anniversary Blue Yodel - Blue Yodel 7 Tabs

(ver. 1) Click to play this song!
Doc Watson
 Rating:
4.3/5 (24 votes)

 Anniversary Blue Yodel - Blue Yodel 7  lessons Tabs too difficult? Try these video lessons and learn fast
 
                [Introduction]

  G7                              C
e |------|---1---1-|---1----------|---0----------|---0-0-0-0-0-|
B |------|---0---0-|---0----------|---1----------|---1-1-1-1-1-|
G |------|---0---0-|---0----------|---0----------|---0-0-0-0-0-|
D |------|---0---0-|---0----------|---2----------|---2-2-2-2-2-|
A |---0-1|-2-------|-2--------0-2-|-3--------0-2-|-3-----------|
E |-3----|-----3---|------3-3-----|------3-3-----|-------------|
                                                           I 

[Verse 1]

                                  C7
e |---0--0-|---0--------|---0--0-|---0-0-0------|---0-0-0-0-|
B |---1--1-|---1--------|---1--1-|---1-1-1------|---1-1-1-1-|
G |---0--0-|---0--------|---0--0-|---3-3-3------|---3-3-3-3-|
D |---2--2-|---2--------|---2--2-|---2-2-2------|---2-2-2-2-|
A |-3------|-3------0-2-|-3------|-3--------0-2-|-3---------|
E |-----3--|-----3------|-----3--|--------3-----|-----------|
   was a    stranger     passin'..town                   I


   F                                         C
e |---1---1-|-1-1-1-1-|---------------------|---0-0---0-0-0-|
B |---1---1-|-1-1-1-1-|---------------1-----|---1-1---1-1-1-|
G |---2---2-|-2-2-2-2-|---------0-1-2---2-0-|---0-0---0-0-0-|
D |-----3---|-3-3-3-3-|---0-1-2-------------|-------2-------|
A |---------|---------|-3-------------------|-3-------------|
E |-1-------|---------|---------------------|---------------|
   was a ..  passin                                 when I    

   G7          G7                    
e |---1-----1-|----1-1-------|----1---1-|----1---1--|---------------------|
B |---0-----0-|----0-0-------|----0---0-|----0---0--|---------------1-----|
G |---0-----0-|----0-0-------|----0---0-|----0---0--|---------0-1-2---2-0-|
D |-0---------|--------------|----------|-0---------|---0-1-2-------------|
A |-------2---|----------0-1-|-2--------|-----------|-3-------------------|
E |-----------|-3------3-----|------3---|------3----|---------------------|
   ask you..   favor                      good gal.. down


   C                                G7                C
e |---0-0---0-0--|---0-0-0---0-0-0-|---1-1-1-1-1-1-1-|---0-0-------|
B |---1-1---1-1--|---1-1-1---1-1-1-|---0-0-0-0-0-0-0-|---1-1-------|
G |---0-0---0-0--|---0-0-0---0-0-0-|---0-0-0-0-0-0-0-|---0-0-------|
D |-------2------|---2-------2-----|-----------------|-------------|
A |-3------------|-3---------------|---------2-------|-3-------0-2-|
E |--------------|---------3-------|-3---------------|-------3-----|
            yodel  ah  hee  oh      del  eh hee yodel lay hee 


[Instrumental]

   G7                                      C                       
e |---0---0-0-|----1---1-|---1-1-1--------|---0----0-|---0-0---0-0-|---0-0---0-0-|
B |---1---1-1-|----0---0-|---0-0-0--------|---1----1-|---1-1---1-1-|---1-1---1-1-|
G |---0---0-0-|----0---0-|---0-0-0--------|---0----0-|---0-0---0-0-|---0-0---0-0-|
D |-----0-----|----------|-------- -------|----------|-------------|-------------|
A |-3---------|-2--------|-2 ---------0-2-|-3--------|-3-----------|-3-----------|
E |-----------|-----3----|----------3-----|-----3----|-------3-----|-------3-----|
                                                                            Honey
 

[Verse 1]

C                                         C7
I was a stranger passing through your town
  F                                    C
I was a stranger  passing through your town
           G                                       C
When I ask you for a favor, good gal you turned me down
C                   G7            C
Yodel eh hee oh del eh hee yodel lay he


[Instrumental]

G7  C


[Verse 2]

C                                         C7
Honey I'm so lonesome  I don't know what to do
  F                                    C
Honey I'm so lonesome,  I don't know what to do
           G                                       C
The way you treat me, sweet mama, I hope you lonesome too
C                   G7            C
Yodel eh hee oh del eh hee yodel lay he


[Verse 3]

C                                                          C7
When you see me walking hear me talking down the railroad track
  F                                    C
When you see me walking hear me talking down the railroad track
           G                                       C
You can bet your life sweet mama that I won't be coming back


[Instrumental]

G7  C


[Verse 4]

C                                         C7
Please Mr Brakeman, don't put me off your train
  F                                    C
Please Mr Brakeman, don't put me off your train
           G                                       C
Well it sure is cold  and it looks like it's going to rain
C                   G7            C       C7
Yodel eh hee oh del eh hee yodel lay he             
Submit corrections


        Anniversary Blue Yodel - Blue Yodel 7  lessons Hard to play? Try these video lessons and learn fast Anniversary Blue Yodel - Blue Yodel 7  lessons
        
↑ Back to top | Tablatures and chords for acoustic guitar and electric guitar, ukulele, drums are parodies/interpretations of the original songs. You may use it for private study, scholarship, research or language learning purposes only