» » »

Django Reinhardt - My Serenade Tabs

Artists:  A B C D E F G H I J K L M N O P Q R S T U V W X Y Z # 

My Serenade Tabs

(ver. 1) Click to play this song!
Django Reinhardt
 Rating:
4.3/5 (6 votes)

 My Serenade  lessons Tabs too difficult? Try these video lessons and learn fast
 
                Guitar solo
E|10--8h10p8-----------------------|9--7h9p7-------------------|----+7|
B|9----------7-9-------------------|8--------6-8---------------|+7----|
G|10-------------7-9---------------|9------------6-8-----------|------|
D|-------------------8-10----------|-----------------7-9-------|------|
A|------------------------9-10/11--|---------------------8-10--|------|
E|--------------------------------8|--------------------------7|------|

E|-----------8/9-9~|----------------------|------8h9p8-7-9-11/14-14~|12\----------------------|
B|7/9-9-9-9--------|5/7-7-7-5-------------|9-9-9--------------------|-----12-9----------------|
G|-----------------|----------6-4---------|-------------------------|----------11h12p11-11-11~|
D|-----------------|--------------4-4h5p4~|-------------------------|-------------------------|
A|-----------------|----------------------|-------------------------|-------------------------|
E|-----------------|----------------------|-------------------------|-------------------------|

E|---------9/10-10-10~|-------------------|---------------------|---------------------------|
B|10-10-10------------|----11/13-13-13-13~|11h13p11-10-9--------|---------15-13-------------|
G|--------------------|10-----------------|--------------9------|---------------14----------|
D|--------------------|-------------------|----------------9----|------14----------14-------|
A|--------------------|-------------------|------------------11~|12-15----------------15-14~|
E|--------------------|-------------------|---------------------|---------------------------|

E|-------------------|11---------------------|-----9-10-11-11~--9-11-12-12|
B|-------------------|---12-9-9--10/12-------|9-12------------------------|
G|12b13---12-12-12-12|-----------------------|----------------------------|
D|-------------------|-----------------11-14~|----------------------------|
A|-------------------|-----------------------|----------------------------|
E|-------------------|-----------------------|----------------------------|

E|-----------------------|--------------9/10-10~|------8-7-6h7p6-5-4-4|4-6/7-5h6p5-4-5-8-12/14-12-14-12h14p12|
B|13-10------------------|9/10-10-10-10---------|8-8-8----------------|--------------------------------------|
G|------9----------------|----------------------|---------------------|--------------------------------------|
D|--------10-7-8b9-------|----------------------|---------------------|--------------------------------------|
A|-----------------7-7-7~|----------------------|---------------------|--------------------------------------|
E|-----------------------|----------------------|---------------------|--------------------------------------|

E|------------------------------------|----------5\4-3-------------|------4-7--8/10-8---------------|
B|-----------5-6-7-8--7-6h7p6-5-4-4-4~|----4-----------5-----------|----5-------------11-8----------|
G|1--6-4-3-4--------------------------|4-6---6~----------6-4-3-2---|--4--------------------9--------|
D|2-----------------------------------|--------------------------5b|6------------------------10-9-9~|
A|2-----------------------------------|----------------------------|--------------------------------|
E|0-----------------------------------|----------------------------|--------------------------------|

E|-----------------------------------------------|----------------------------4-7-5-------|
B|------------------------6-8--7-6h7p6-5---------|5-5-5-5-5-5-5-----------4-5-------------|
G|--------6-------6-7-8-9----------------7/8-8-8~|----------------------4-----------4-3-2~|
D|----6-9---9-8-9--------------------------------|----------------------------------------|
A|--7--------------------------------------------|----------------4-6-7-------------------|
E|7----------------------------------------------|--------------5-------------------------|

                      (rapidly strummed)
                      v  v                v  v v
E|11-10-8-7-5-2------|------9-9-----+5---|---------12-------------------|---------------------------------|
B|--------------4-3-2|9--8--9-9--+5-+5-+7|9--8-8/-----12----------------|9-9-9--15-15\--8-8-8-12/13-13-13~|
G|-------------------|8--8--8-8--+5----+7|8--8-8/--------13-11h13p11-11~|8-8-8--14-14\--------------------|
D|-------------------|9--9--7-7----------|9--9-9/-----------------------|7-7-7--13-13\--------------------|
A|-------------------|-------------------|------------------------------|---------------------------------|
E|-------------------|-------------------|------------------------------|---------------------------------|

E|-----------------------------|
B|-----------------------------|
G|4-4--x-4-x-5-9-11-14-x-13-9-9|
D|-----------------------------|
A|2-2--x-2-x-3-7-9--12-x-11-7-7|
E|-----------------------------|

Violin Solo
E|16-16-16-16-21--21-21\|---19------------------------------|-----------------------------------|
B|----------------------|21----21-19------------------------|------16-17-17---------------------|
G|----------------------|------------21-18----21-18---------|16-18----------18-18-16-16---------|
D|----------------------|------------------21-------21-18---|---------------------------16/18---|
A|----------------------|---------------------------------19|---------------------------------19|
E|----------------------|-----------------------------------|-----------------------------------|

E|19-19-17-19-17-16-17-24-22-20-19-18-17-16-15~|15-14-15-20-20-19-18-17-16-15-14-13|
B|---------------------------------------------|-----------------------------------|
G|---------------------------------------------|-----------------------------------|
D|---------------------------------------------|-----------------------------------|
A|---------------------------------------------|-----------------------------------|
E|---------------------------------------------|-----------------------------------|

E|---19-16-----------------------------------------------|16~----16-------------------------------|
B|17-------17-14----14-17-14h17p14-----------------------|----17----17-14----17-14----------------|
G|---------------16--------------------13----------13----|----------------16-------16-13----------|
D|----------------------------------16----13/14-16----14~|-------------------------------14-16-14~|
A|-------------------------------------------------------|----------------------------------------|
E|-------------------------------------------------------|----------------------------------------|

E|------------------|------16-19-16h19p16----------------------------------|
B|14-14-------------|---17----------------17-------17-17-17----------------|
G|------13----11----|18----------------------18-16----------18-16----------|
D|---------14----14~|---------------------------------------------16/18-16~|
A|------------------|------------------------------------------------------|
E|------------------|------------------------------------------------------|

E|17-19-17-16-17-22-17----------20~~|---------18----------------------------------------|
B|---------------------20----22-----|20-19-18----20-18----------------------------------|
G|------------------------19--------|------------------19----19-18-17-16----------------|
D|----------------------------------|---------------------20-------------20-19-18-18----|
A|----------------------------------|------------------------------------------------19~|
E|----------------------------------|---------------------------------------------------|

E|-------------------------|----------------------------------------------------------|
B|-------------------------|---------------------16-17-18-19-20-20~-18-17-15/16-16-16~|
G|16-16-16--16/19-16h18p16~|16-16-16-17-16-16/18--------------------------------------|
D|-------------------------|----------------------------------------------------------|
A|-------------------------|----------------------------------------------------------|
E|-------------------------|----------------------------------------------------------|

E|-------------------------------12-12-11-10-9-------|-------------------------------------------------------|
B|------16-------------------------------------13-12~|------------------16-17-18-19-20-20~-18-17-15/16-16-16~|
G|16-18----18-16---------------9---------------------|16-16-16-17-16-18--------------------------------------|
D|---------------18-14-------------------------------|-------------------------------------------------------|
A|---------------------16-14~------------------------|-------------------------------------------------------|
E|---------------------------------------------------|-------------------------------------------------------|

E|----------------------------------------------------------------|16--16-16-21~--21-21\----------------|
B|------16--------------------17-15----17-17-15-15--14/16---------|-----------------------19-21-19----19|
G|16-18----18-18-18--16/18-18-------18--------------------16-18-16|--------------------------------21---|
D|----------------------------------------------------------------|-------------------------------------|
A|----------------------------------------------------------------|-------------------------------------|
E|----------------------------------------------------------------|-------------------------------------|

                       this is an octave higher
                        out of guitar range
                       v
E|16--16-16-21~--21-21----------------|17-17-19-17-16-17-22~--------------20-20~|
B|---------------------19-21-19----19~|-----------------------20-20-20-20-------|
G|------------------------------21----|-----------------------------------------|
D|------------------------------------|-----------------------------------------|
A|------------------------------------|-----------------------------------------|
E|------------------------------------|-----------------------------------------|

                                   octave higher
                                   v  v
E|19-17-16-17-19-20-19h20p19-16/18-19-19~|
B|---------------------------------------|
G|---------------------------------------|
D|---------------------------------------|
A|---------------------------------------|
E|---------------------------------------|

Guitar outro
E|----------0-4-7-12--+7-+5|
B|--------0----------------|
G|------1------------------|
D|----2--------------------|
A|--2----------------------|
E|4------------------------|            
Submit corrections


        My Serenade  lessons Hard to play? Try these video lessons and learn fast My Serenade  lessons
        
↑ Back to top | Tablatures and chords for acoustic guitar and electric guitar, ukulele, drums are parodies/interpretations of the original songs. You may use it for private study, scholarship, research or language learning purposes only