» » »

Django Reinhardt - Brazil Tabs

Artists:  A B C D E F G H I J K L M N O P Q R S T U V W X Y Z # 

Brazil Tabs

(ver. 1) Click to play this song!
Django Reinhardt
 Rating:
2.4/5 (22 votes)

 Brazil  lessons Tabs too difficult? Try these video lessons and learn fast
 
                E|----------------------------------------------------x1
B|----------------------------------------------------
G|--7--8--9--7--8--9--9--8--7--8--9--7--8--9--9--8----
D|----------------------------------------------------
A|----------------------------------------------------
E|----------------------------------------------------

E|---------x1|-------------------------------x2
B|----12v----|--15--15--12--12--10--10--8--10
G|-----------|-------------------------------
D|-----------|-------------------------------
A|-----------|-------------------------------
E|-----------|-------------------------------


E|-------------------------------x1|----------------------x1
B|--15--15--12--12--10--10--8--12--|-------------12---------
G|---------------------------------|--11--9--11------11--9--
D|---------------------------------|------------------------
A|---------------------------------|------------------------
E|---------------------------------|------------------------


E|------------------------------------------------x1
B|--------------------------------------------------
G|--7--8--9--7--8--9--9--8--7--8--9--7--8--9--9--8--
D|--------------------------------------------------
A|--------------------------------------------------
E|--------------------------------------------------


E|-----x1|-------------------------------x2
B|--12v--|--15--15--12--12--10--10--8--10--
G|-------|---------------------------------
D|-------|---------------------------------
A|-------|---------------------------------
E|-------|---------------------------------

E|-------------------------------x1|----------------------x1
B|--15--15--12--12--10--10--8--12--|-------------12---------
G|---------------------------------|--11--9--11------11--9--
D|---------------------------------|------------------------
A|---------------------------------|------------------------
E|---------------------------------|------------------------


E|--------------------x1|--------------------------------x2|--------------------------------x1
B|--15--15--13--12--15--|--15--15--13--12--11--12--13--15--|--15--15--13--12--11--10--12--13--
G|----------------------|----------------------------------|----------------------------------
D|----------------------|----------------------------------|----------------------------------
A|----------------------|----------------------------------|----------------------------------
E|----------------------|----------------------------------|----------------------------------


E|----------------------------------------------------------------------------------------------x1
B|--13v----13--13--12--12--10--10--8--10v----8--10--12--13/15--12--10--8-----------10--------12--
G|------------------------------------------------------------------------9----11--------12------
D|-----------------------------------------------------------------------------------------------
A|-----------------------------------------------------------------------------------------------
E|-----------------------------------------------------------------------------------------------


E|-----------------------x1
B|-------------12---------
G|--11--9--11------11--9--
D|------------------------
A|------------------------
E|------------------------


E|----x1|------------------------x2
B|------|--------------------------
G|--4v--|--7--7--4--4--2--2--0--2--
D|------|--------------------------
A|------|--------------------------
E|------|--------------------------


E|------------------------x1|------------------x1
B|--------------------------|--------------------
G|--7--7--4--4--2--2--0--4--|-----------4--------
D|--------------------------|--4--2--4-----4--2--
A|--------------------------|--------------------
E|--------------------------|--------------------


E|----x1|------------------------x2
B|------|--------------------------
G|--7v--|--7--7--5--4--3--4--5--7--
D|------|--------------------------
A|------|--------------------------
E|------|--------------------------


E|------------------------------------------------------------------------------------------------x1
B|--------------------------------------------------------------------------------------------------
G|--7--7--5--4--3--2--4--5----5v----5--5--4--4--2--2--0--2----0--2--4--5/7--4--2--0--------2-----4--
D|-----------------------------------------------------------------------------------2--4-----5-----
A|--------------------------------------------------------------------------------------------------
E|--------------------------------------------------------------------------------------------------



E|------------------x1
B|--------------------
G|-----------4--------
D|--4--2--4-----4--2--
A|--------------------
E|--------------------


E|-------------------------- This is played repetedly as the song fades away.
B|--------------------------
G|--7--8--9--7--8--9--9--8--
D|--------------------------
A|--------------------------
E|--------------------------            
Submit corrections


        Brazil  lessons Hard to play? Try these video lessons and learn fast Brazil  lessons
        
↑ Back to top | Tablatures and chords for acoustic guitar and electric guitar, ukulele, drums are parodies/interpretations of the original songs. You may use it for private study, scholarship, research or language learning purposes only