» » »

Django Reinhardt - All Of Me Tabs

Artists:  A B C D E F G H I J K L M N O P Q R S T U V W X Y Z # 

All Of Me Tabs

(ver. 1) Click to play this song!
Django Reinhardt
 Rating:
4.3/5 (15 votes)

 All Of Me  lessons Tabs too difficult? Try these video lessons and learn fast
 
                E|--------12----10-8-----7----------------------------------------7-10-13-12-10-|
B|------8----12--------8---8------------------------------------9---------------|
G|-9-10--------------9-------9---------------------------7-9-10-----------------|
D|-----------------------------10-7---7--7--7h9p7\6----9------------------------|
A|------------------------------------------------------------------------------|
E|------------------------------------------------------------------------------|

E|-10p12p10-9-----------------------------------------------7/13----10-8p10p8----|
B|--------------11----/11-10---8-6------------------------9------12-----------10-|
G|------------9--------------6-------9-7-----------7-9-10------------------------|
D|---------------------------------7-----6-9-7p6p9-------------------------------|
A|-------------------------------------------------------------------------------|
E|-------------------------------------------------------------------------------|

E|-----------------7---5------5-7-8-12----7p8p7/5------------5-8-----5-7-8-|
B|-0-------------5---5------5---------------------5--------6-------7-------|
G|---7-5-4---4-5------------------------------------7----7-------8---------|
D|---------7---------------------------------------------------------------|
A|-------------------------------------------------------------------------|
E|-------------------------------------------------------------------------|

E|-10-12------------------------------------------------------------------------|
B|----------12-15-14-13-12-------12---------------10-15-14-13-12----------12/10-|
G|-------------------------14-13----10-9-------10----------------15-14-13-------|
D|------------------------------------------12----------------------------------|
A|------------------------------------------------------------------------------|
E|------------------------------------------------------------------------------|

E|----------------------------------------------6-9-12-10-13----12-15-13-17-12-15----|
B|---------11p13p11-10----------------------5-8--------------------------------------|
G|----9-12-------------12-10-9-12-------5p6------------------------------------------|
D|-11--------------------------------------------------------------------------------|
A|-----------------------------------------------------------------------------------|
E|-----------------------------------------------------------------------------------|

E|-13p10---------------------------------------------------12----18-17-17-12-15-13-------12---------------|
B|-------13-11------------------------------------------13----14----------------------13-------13b11b10b--|
G|-------------13-12-11-10-10-10-10-10-10-9-------13-14----------------------------14-------12------------|
D|--------------------------------------------------------------------------------------------------------|
A|--------------------------------------------------------------------------------------------------------|
E|--------------------------------------------------------------------------------------------------------|            
Submit corrections


        All Of Me  lessons Hard to play? Try these video lessons and learn fast All Of Me  lessons
        
↑ Back to top | Tablatures and chords for acoustic guitar and electric guitar, ukulele, drums are parodies/interpretations of the original songs. You may use it for private study, scholarship, research or language learning purposes only