Home » D » Dixie Chicks »

Dixie Chicks - Landslide (mandolin Tabs

Artists:  A B C D E F G H I J K L M N O P Q R S T U V W X Y Z # 

Landslide (mandolin Tabs

(ver. 1) Click to play this song!
Dixie Chicks
 Rating:
4/5 (4 votes)
                (Solo)
Dixie Chicks
Landslide Mandolin Solo

E -------------------|-------------------|------------------|---------------
A -----------------0-|-------------------|------------------|---------------
D -----------0-2-4---|-------------4-2-0-|------------0-0-0-|0-0-0------2-0-
G -------------------|-------------------|2-4---------4-4-4-|4-2-2----2-----

E -----------------|----------------|--------------0-|2-3-5-----5-5-5-
A -----------------|----0-----------|------0-2-4-5---|----------------
D ---------2-0-2-0-|2-4-------2-4-0-|5-4-5-----------|----------------
G ---2-4-6---------|----------------|----------------|----------------

E -5----5---5-----|10----10---10-----|10----9---7---9-|--7----5-7-5-----
A -0----0---0-----|0-----0----0------|----------------|-------------9-7-
D ----------------|------------------|----------------|-----------------
G ----------------|------------------|----------------|-----------------

E ------0-----0---|0-2-5------0-2-5-|5/7----5-7-5-3-2-|0---------------
A 0-2-5---5-5---5-|-----------------|-----------------|------5-4-2-0---
D ----------------|-----------------|-----------------|--------------5-
G ----------------|-----------------|-----------------|----------------
            
Submit corrections

↑ Back to top | Tablatures and chords for acoustic guitar and electric guitar, ukulele, drums are parodies/interpretations of the original songs. You may use it for private study, scholarship, research or language learning purposes only