Home » D » Dixie Chicks »

Dixie Chicks - Landslide For 3 Guitars Tabs

Artists:  A B C D E F G H I J K L M N O P Q R S T U V W X Y Z # 

Landslide For 3 Guitars Tabs

(ver. 1) Click to play this song!
Dixie Chicks
 Rating:
4/5 (4 votes)
                Landslide

    

Gtr I  Capo 3 Bright Acoustic 
Gtr II Capo 3 Acoustic
Gtr III Muted Electric

(note one of the acoustic guitars can be switched for a 12 string)

All Guitars Standard Tuning

   intro
    Q=80
      C             G/B             Am7             G/B
   4/4
    Gtrs I, II
    S S S S S S S S S S S S S S E   S S S S S S S S S S S S S S S S
||------0-------------------------|----------------------------------|
||o-------1---------------3-----3-|-------1---------------3-------0--|
||----0-------0-------0-------0---|---0-------0-------0-------0------|
||------2-------2p0-----0---------|-----2-------2p0-----0-------0----|
||o-3-------3-------2-------2-----|-0-------0-------2-------2--------|
||--------------------------------|----------------------------------|


  C             G/B             Am7             G/B
  S S S S S S E S S S S S S E   S S S S S S S S S S S S S S S S
|-----------------------------|----------------------------------||
|-------1-------------3-------|-------1---------------3-------0--||
|---0-------0-----0-------0---|---0-------0-------0-------0------||
|-----2-------2-----0-------0-|-----2-------2p0-----0-------0----||
|-3-------3-----2-------2-----|-0-------0-------2-------2--------||
|-----------------------------|----------------------------------||


  Q=80
  C               G/B             Am7             G/B
 4/4
  Gtrs I, II
  S S S S S S S S S S S S S S E   S S S S S S S S S S S S S S S S
|-----0-------------------------|---------------------------------|
|-------1---------------3-----3-|-------1---------------3-------0-|
|---0-------0-------0-------0---|---0-------0-------0-------0-----|
|-----2-------2p0-----0---------|-----2-------2p0-----0-------0---|
|-3-------3-------2-------2-----|-0-------0-------2-------2-------|
|-------------------------------|---------------------------------|


  C             G/B             Am7                     G/B
  S S S S S S E S S S S S S E   S S S S S S S S S S S S S S S S
|-----------------------------|-----------------------------------||
|-------1-------------3-------|-------1-------1-------1-------3--o||
|---0-------0-----0-------0---|---0-------0-------0-------0-------||
|-----2-------2-----0-------0-|-----2-------2-------2-------0-----||
|-3-------3-----2-------2-----|-0-------0-------0-------2--------o||
|-----------------------------|-----------------------------------||


 2
  Am7             G/B               C               G/B
  Gtr I
  S S S S S S S S S S S S S S E     S S S S S S E   S S S S S S S S
|-0-------------------------------|---------------------------------|
|-------1-------1-------3---------|-------1-----------3---3---------|
|---0-------0-------0-------0-----|---0-------0---------------0---0-|
|-----2-------2-------0-------0---|-----2-------2-------0-------0---|
|-0-------0-------2-------2-------|-3-------3-------2-------2-------|
|---------------------------------|---------------------------------|
|
| Gtr II
| S S S S S S E   S S S S S S S S   S S S S S S S S S S S S S S S S
|---------------------------------|-------0-----------0---0---------|
|-------1---------------3---------|-0h1-------1-----3---------3-----|
|---0-------0-------0-------0---0-|---------------0-----------0---0-|
|-----2-------2-------0-------0---|-----2-------2-------0-------0---|
|-0-------0-------2-------2-------|-3-------3-------2-------2-------|
|---------------------------------|---------------------------------|


  Am7               G/B               C                 G/B
  E   S S S S T T S S S S S S S S S   S S S S +S  S S S S S S S S S S S
|-------3-----------3-----3---------|------------------------------------|
|-----------------------3-----------|-------1-(1)-------3-----3----------|
|-----2-----0-----0---0-------0-----|---0---------0---0---0-------0---0--|
|-------------0h2-------0-------0-2-|-----2---------2-------0-------0----|
|-0-------0---------2-------2-------|-3-----------------2-------2--------|
|-----------------------------------|------------------------------------|
|
| S S S S S S S   S E   S S S S S S   S S S S  S  S S S S S S S S S S S
|-------0-----------------0---------|-------0----------------------------|
|-0h1-------1-------3---------3-----|-0h1---------1-----3-----3----------|
|-----------------------------------|-----------------0---0-------0------|
|-----2-------2---0-----0-------0h2-|-----2---------2-------0-------0h2--|
|-0-------0---------2-------2-------|-3--------3--------2-------2--------|
|-----------------------------------|------------------------------------|


                                        Riff B
  Am7                 D7/F#              G           D7/F#
  S S S S S S E       E   S S S S S S    S S S S E E S S S S S S S S
|---------------------------3---------||-------3---------------------|
|-0h1---1-------------1---2-----------||-1p0-----------------1-------|
|-----------0---------2---------2---0-||---------------2---2---2---0-|
|-----2-------2-------------------0---||-----0-----0-0---0-------0---|
|-0-------0---------------------------||-----------------------------|
|---------------------2-------2-------||-3-------3---2-------2-------|
|
| S S S S S S T T T T S S S S S S E      S S E   E E S S S S S S S S
|-------------------------------------||-----------------------------|
|-0h1---1-------------0h1-3-----------||-1p0-------------------------|
|-----------0-----0h2-------2---2-----||---------------2---2---2---0-|
|-----2-------2p0---------0-------0---||-----0-----0-----0-------0---|
|-0-------0---------------------------||-----------------------------|
|-----------------------------2-------||-3-------3---2-------2-------|


  Em                              C                 G/B
  E   S S S S S S E S S E   S S   S S S S S S S S S S S S S S S S
|-0-----0---------0---0---------|-------------------3-------------|
|---------------0---0-----------|---1---1---1---3-------3---3-----|
|-----------0-----------------0-|-------------0---------------2-0-|
|-----2-------2-------------2---|-----2---------------0-----------|
|---------2---------------------|-3-------3-------2-------2-------|
|-0---------------0-----0-------|---------------------------------|
|
| S S E   S S S S E E   S S S S   S S S S S S S S S S S S S S E
|-------------------0-----------|---------------------------------|
|-1-0-----------3---------------|-------1-------1-------3---------|
|-----------0-----------------0-|---0-------0-------0-------0-----|
|-----2-------2-----2-------2---|-----2-------2-------0-------0---|
|---------2-------------0h2-----|-3-------3-------2-------2-------|
|-0---------------0-------------|---------------------------------|


  Am7                 D7/F#             G             D7/F#
  S S S S S S T T T T S S S S S S S S   S S S S E E   S S S S S S S S
|-------------------------------------|-------3------------------------|
|-0h1---1-------------1h3-------1-----|-1p0-----------3-------1--------|
|-----------0-----0h2-------2-------0-|-----------------2---2---2---0--|
|-----2-------2p0---------0-------0---|-----0-----0-------0-------0----|
|-0-------0---------------------------|--------------------------------|
|---------------------2-------2-------|-3-------3-----2-------2--------|
|
| E   S S S S T T T T S S S S S S S S   E   S S E S S S S S S S S S S
|-------------------------------------|--------------------------------|
|-------1-------------0h1-1-----1-----|--------------------------------|
|-2---------0-----0h2-------2-------0-|-----0-------0---2---2---2---0--|
|-----2-------2p0---------0-------0---|-------0---0-------0-------0----|
|-0-------0---------------------------|--------------------------------|
|---------------------2-------2-------|-3-------3-----2-------2--------|


                                 End Riff B
  Em                          
            
Submit corrections

↑ Back to top | Tablatures and chords for acoustic guitar and electric guitar, ukulele, drums are parodies/interpretations of the original songs. You may use it for private study, scholarship, research or language learning purposes only