Home » D » Dixie Chicks »

Dixie Chicks - Heartbreak Town Tabs

Artists:  A B C D E F G H I J K L M N O P Q R S T U V W X Y Z # 

Heartbreak Town Tabs

(ver. 1) Click to play this song!
Dixie Chicks
 Rating:
3.4/5 (5 votes)
                Dixie Chicks - Heartbreak Town (picking pattern)



***********************************************************************


 INTRO (also played after 1st chorus & at end of song)


E-------------------------------------|
B--2---3--3-2--0--0-2--3--3-2--0--0---|
G---2---2----2--0----2--2----2--0-----|
D----0---0-0--0--0-0--0--0-0--0--0-0--|
A-------------------------------------|
E-------------------------------------|


VERSE 


E------0-------------------0---------------------------------------0---
B----3---3----3---3------3---3----3---3------3---2---3---3----2-0h2-2--
G---2-----2--0-0-0------2-----2--0-0-0------2-2---2-2---0-0----------2-
D--0--0-0--------------0--0-0--------------0----2------------2--------2
A------------------0-2-----------------0-2-----4---2--0-----0----------
E-----------3---3---------------3---3------------------3---------------


E------0-------------------0------------------------------------0----
B----3---3----3---3------3---3----3---3------3---2---3---3----2---2--
G---2-----2--0-0-0------2-----2--0-0-0------2-2---2-2---0-0--------2-
D--0--0-0--------------0--0-0--------------0----2------------2-------
A------------------0-2-----------------0-2-----4---2--0-----0--0-0---
E-----------3---3---------------3---3------------------3-------------


E-------------------------0------------------0---------------|
B-------------0----2----0-0-0----0----2----0-0-0----0----2---|
G----0---0---0-0----0---0---0-----0----0---0---0-----0----2--|
D-----2-----------2-------------0----2-------------0----2----|
A---2---2--------0-----2---2--------0-----2---2--------0-----|
E--0---0--2-3---------0--0---2-3---------0--0---2-3----------|
            
Submit corrections

↑ Back to top | Tablatures and chords for acoustic guitar and electric guitar, ukulele, drums are parodies/interpretations of the original songs. You may use it for private study, scholarship, research or language learning purposes only