» » »

Distillers - Warriors Tabs

Artists:  A B C D E F G H I J K L M N O P Q R S T U V W X Y Z # 

Warriors Tabs

(ver. 1) Click to play this song!
Distillers
 Rating:
4/5 (4 votes)

 Warriors lessons Tabs too difficult? Try these video lessons and learn fast
 
                uhh.. these riffs arent in order. this song is extremely easy, and i dont see the point in writing everything out. you can figure it out with what i've given you.

intro/verse:
e -------------------------
B -------------------------
G --2---5---7---5--4--2----
D --2---5---7---5--4--2----
A --0---3---5---3--2--0----
E -------------------------

chorus:
e -------------------------
B -------------------------
G -----7-----9-------------
D --7--7--5--9-------------
A --7--5--5--7-------------
E --5-----3----------------

bridge:
e --5----------------------
B --5--7--8--9-------------
G -----7--7--7-------------
D -------------------------
A -------------------------
E -------------------------



^..^<
            
Submit corrections


        Warriors lessons Hard to play? Try these video lessons and learn fast Warriors lessons
        
↑ Back to top | Tablatures and chords for acoustic guitar and electric guitar, ukulele, drums are parodies/interpretations of the original songs. You may use it for private study, scholarship, research or language learning purposes only