» » »

Distillers - Sic Of It All Tabs

Artists:  A B C D E F G H I J K L M N O P Q R S T U V W X Y Z # 

Sic Of It All Tabs

(ver. 1) Click to play this song!
Distillers
 Rating:
4/5 (4 votes)

 Sic Of It All lessons Tabs too difficult? Try these video lessons and learn fast
 
                Opening: 

e|------------------------|
B|------------------------| 
G|-7-9--7-9------7-----9--| 
D|-7-9--7-9---5--7--7--9--| 
A|-5-7--5-7---5--5--7--7--| 
E|------------3-----5-----| 

verse: 

e|----------| 
B|----------| 
G|----7--9--| 
D|-5--7--9--| 
A|-5--5--7--| 
E|-3--------| 

bridge: 

e|-----------------------------------------------------| 
B|-----------------------------------------------------| 
G|-9--7--10--12-----7---9--7--10--11------7------7--9--| 
D|-9--7--10--12--5--7---9--7--10--11---5--7--7---7--9--| 
A|-7--5---8--10--5--5---7--5--8---10---5--5--7---5--7--| 
E|---------------3---------------------3-----5---------| 

solo: 

e|---------------------------------------------------| 
B|---------------------------------------------------| 
G|---------------------------------------------------| 
D|----------7---9--7---------------------------------| 
A|--7--9--------------------------8--10----8---------| 
E|----------------------10---10------------------10--| 

e|-------------------------------| 
B|-------------------------------| 
G|------------7-----------7---9--| 
D|--7---10------7---10-----------| 
A|-------------------------------| 
E|-------------------------------| 

ending: 

e|---------------------------| 
B|---------------------------| 
G|--9-----7-----9------9-----| 
D|--9--5--7--7--9---7--9--7--| 
A|--7--5--5--7--7---7--7--7--| 
E|-----3-----5------5-----5--| 

These are the best out there since i saw Brody playing it live, exactly Have fun!
            
Submit corrections


        Sic Of It All lessons Hard to play? Try these video lessons and learn fast Sic Of It All lessons
        
↑ Back to top | Tablatures and chords for acoustic guitar and electric guitar, ukulele, drums are parodies/interpretations of the original songs. You may use it for private study, scholarship, research or language learning purposes only