» » »

Distillers - L.A. Girl Tabs

Artists:  A B C D E F G H I J K L M N O P Q R S T U V W X Y Z # 

L.A. Girl Tabs

(ver. 1) Click to play this song!
Distillers
 Rating:
4/5 (4 votes)

 L.A. Girl lessons Tabs too difficult? Try these video lessons and learn fast
 
                The Distillers
LA Girl

Intro/Verse
|-----------|
|-----------|
|-----------|
|---2----7--|
|---2----7--|
|---0----5--|

Pre Chorus
|----------------|
|----------------|
|---7------------|
|---7----7----2--|
|---5----7----2--|
|--------5----0--|

Chorus
|---------------------|
|---------------------|
|--------7------------|
|---7----7----7----2--|
|---7----5----7----2--|
|---5---------5----0--|

Bridge
|-------------------------------|
|-------------------------------|
|---5--------------5------------|
|---5----7----2----5----7----2--|
|---3----7----2----3----7----2--|
|--------5----0---------5----0--|

"do i miss you.."
|--------------------------------------------|
|--------------------------------------------|
|-------------------------------7------------|
|---------0-----------2----7----7----7----2--|
|------0----0---------2----7----5----7----2--|
|---0-----------0-----0----5---------5----0--|
            
Submit corrections


        L.A. Girl lessons Hard to play? Try these video lessons and learn fast L.A. Girl lessons
        
↑ Back to top | Tablatures and chords for acoustic guitar and electric guitar, ukulele, drums are parodies/interpretations of the original songs. You may use it for private study, scholarship, research or language learning purposes only