» » »

Distillers - I Understand Tabs

Artists:  A B C D E F G H I J K L M N O P Q R S T U V W X Y Z # 

I Understand Tabs

(ver. 1) Click to play this song!
Distillers
 Rating:
4.2/5 (5 votes)

 I Understand lessons Tabs too difficult? Try these video lessons and learn fast
 
                
e------------------------------
b------------------------------
g--8--10---------------------
d--8--10--11--10----------
a--6---8--11--10----------
e----------9---8-----------
 
e------------------------------
b------------------------------
g---------10--9---------------
d---5-----10--9---------------
a---5-----8---7---------------
e---3-------------------------
 
e------------------------------
b------------------------------
g------------------------------
d--10--9--4---7--4---------
a--10--9--4---7--4---------
e---8--7--2--5---2--------- 


^..^<
            
Submit corrections


        I Understand lessons Hard to play? Try these video lessons and learn fast I Understand lessons
        
↑ Back to top | Tablatures and chords for acoustic guitar and electric guitar, ukulele, drums are parodies/interpretations of the original songs. You may use it for private study, scholarship, research or language learning purposes only