» » »

Dissection - Elisabeth Bathori Bass

Artists:  A B C D E F G H I J K L M N O P Q R S T U V W X Y Z # 

Elisabeth Bathori Bass

(ver. 1) Click to play this song!
Dissection
 Rating:
4.4/5 (14 votes)

 Elisabeth Bathori lessons Tabs too difficult? Try these video lessons and learn fast
 
                [Intro and Verse] (x6)  
G|--------------------------------------(5)--------(7)--|
D|----------------------------------(5)--------(7)------|
A|--7--7----5--7--7----5--7--7----3---------5-----------|
E|------------------------------------------------------|

[Chorus] (x2)  
G|----------------------------------------|
D|----------------------------------------|
A|--7--7-------6--6-------7--7------------|
E|----------8----------8----------8\3--3--|

G|---------------------------|
D|---------------------------|
A|--7--7------6--6-----------|
E|---------8----------8/6~---|

[Verse] (x4)  
G|--------------------------------------(5)--------(7)--|
D|----------------------------------(5)--------(7)------|
A|--7--7----5--7--7----5--7--7----3---------5-----------|
E|------------------------------------------------------|

[Chorus] (x2)  
G|----------------------------------------|
D|----------------------------------------|
A|--7--7-------6--6-------7--7------------|
E|----------8----------8----------8\3--3--|

G|---------------------------|
D|---------------------------|
A|--7--7------6--6-----------|
E|---------8----------8/6~---|

[Break]                           x3
G|------|-------------------------|
D|------|-------------------------|
A|--7~--|--5--7~--(7)--(7)--(7)---|
E|------|-------------------------|

G|---------------------------|
D|---------------------------|
A|--7\-------2---------------|
E|--------0------3~----3--2--|

G|----------------------|
D|----------------------| x11
A|-----2----------------|
E|--0------3~----3--2---|

[Verse] (x5)  
G|--------------------------------------(5)--------(7)--|
D|----------------------------------(5)--------(7)------|
A|--7--7----5--7--7----5--7--7----3---------5-----------|
E|------------------------------------------------------|

[Chorus] (x2)  
G|----------------------------------------|
D|----------------------------------------|
A|--7--7-------6--6-------7--7------------|
E|----------8----------8----------8\3--3--|
                                              
G|---------------------------|
D|---------------------------|
A|--7--7------6--6-----------|
E|---------8----------8/6~---|

end with this
G|------|
D|------|
A|------|
E|--0~--|

[Solo]
G|--------------------------------------------------|
D|--------------------------------------------------| x2
A|--0--0--0--0--0--0--0--0--------------------------|
E|--------------------------4--4--4--4--4--4--4--4--|

G|---------------------------------------------------|
D|---------------------------------------------------| x2
A|--7--7--7--7--7--7--7--7---5--5--5--5--5--5--5--5--|
E|---------------------------------------------------|

G|--------------------------------------------------|
D|--------------------------------------------------| x2
A|--0--0--0--0--0--0--0--0--------------------------|
E|--------------------------4--4--4--4--4--4--4--4--|
                               1st time                   2nd time
G|--------------------------|--------------------------|--------------------------|
D|--------------------------|--------------------------|--------------------------|
A|--7--7--7--7--7--7--7--7--|--5--5--5--5--5--5--5--5--|--------------------------|
E|--------------------------|--------------------------|--4--4--4--4--4--4--4--4--|

[Break]  
G|----------|
D|----------| x4
A|--0~------|
E|------4~--|

G|----------|
D|----------| x4
A|--0~------|
E|------1~--|

[Verse] (x4)  
G|--------------------------------------(5)--------(7)--|
D|----------------------------------(5)--------(7)------|
A|--7--7----5--7--7----5--7--7----3---------5-----------|
E|------------------------------------------------------|

[Chorus] (x2)  
G|----------------------------------------|
D|----------------------------------------|
A|--7--7-------6--6-------7--7------------|
E|----------8----------8----------8\3--3--|

G|---------------------------|
D|---------------------------|
A|--7--7------6--6-----------|
E|---------8----------8/6~---|

end with this
G|------|
D|------|
A|------|
E|--0~--|
            
Submit corrections


        Elisabeth Bathori lessons Hard to play? Try these video lessons and learn fast Elisabeth Bathori lessons
        
↑ Back to top | Tablatures and chords for acoustic guitar and electric guitar, ukulele, drums are parodies/interpretations of the original songs. You may use it for private study, scholarship, research or language learning purposes only