» » »

Dispatch - Carry You Tabs

Artists:  A B C D E F G H I J K L M N O P Q R S T U V W X Y Z # 

Carry You Tabs

(ver. 1) Click to play this song!
Dispatch
 Rating:
4.4/5 (11 votes)

 Carry You lessons Tabs too difficult? Try these video lessons and learn fast
 
                [INTRO & VERSE]
                     D
e|---------------------5--|
B|-7h8-7---------------7--|
G|-7---7--7h9-7--------7--|     x6
D|--------7-----7------7--|
A|--------------7h9-7--5--|
E|------------------------|

[CHORUS]
        Bm      G       D       Bm      G       D
e|--------2-------3-------2-------2-------3-------2--|
B|--------3-------3-------3-------3-------3-------3--|
G|--------4-------4-------2-------4-------4-------2--|  x1
D|-----0--4-------5-------0-------4-------5-------0--|
A|-0h2----2-------5---------------2-------5----------|
E|----------------3-----------------------3----------|

 Bm     G       D       Bm      G
e|-2------3-------2-------2-------3--|
B|-3------3-------3-------3-------3--|
G|-4------4-------2-------4-------4--|  x1
D|-4------5-------0-------4-------5--|
A|-2------5---------------2-------5--|
E|--------3-----------------------3--|

                     D
e|---------------------5--|
B|-7h8-7---------------7--|
G|-7---7--7h9-7--------7--|     x5
D|--------7-----7------7--|
A|--------------7h9-7--5--|
E|------------------------|

        Bm      G       D       Bm      G       D
e|--------2-------3-------2-------2-------3-------2--|
B|--------3-------3-------3-------3-------3-------3--|
G|--------4-------4-------2-------4-------4-------2--|  x1
D|-----0--4-------5-------0-------4-------5-------0--|
A|-0h2----2-------5---------------2-------5----------|
E|----------------3-----------------------3----------|

 Bm     G       D       Bm      G       D
e|-2------3-------2-------2-------3-------2--|
B|-3------3-------3-------3-------3-------3--|
G|-4------4-------2-------4-------4-------2--|  x1
D|-4------5-------0-------4-------5-------0--|
A|-2------5---------------2-------5----------|
E|--------3-----------------------3----------|

[SOLO: LEAD GUITAR]
e|-10-7------|--|-------------------------|---------------|
B|------10-7-|--|-------------------------|---------------|
G|-----------|--|---7-9-9b10--9-7-9-7h9p7-|---7---7-----7-|
D|-----------|--|-9-----------------------|-9---9---9p7---|
A|-----------|--|-------------------------|---------------|
E|-----------|--|-------------------------|---------------|

e|-------------------------------------|---------------------------------------|
B|-------------------------------------|-----7-7-7h10-10-10-10s12-12-12--12s15-|
G|-------7-------------------------7-7-|-7h9-----------------------------------|
D|-9-7-9---9-7-9-7-------7-7-7-7h9-----|---------------------------------------|
A|-----------------9s7-9---------------|---------------------------------------|
E|-------------------------------------|---------------------------------------|

e|------------------------------------|--|
B|-15-12----12------------------------|--|
G|-------14----14-11-9-7-9b10-9-7-9-7-|--|
D|------------------------------------|--|
A|------------------------------------|--|
E|------------------------------------|--|

e|-----------------------------------|
B|-----------------------------------|
G|---7---7---7---7---7---7-9-7---7---|
D|-9---9---9---9---9---9-------9-----|
A|-----------------------------------|
E|-----------------------------------| x3

e|------------------------------------|
B|------------------------------------|
G|---7---7---7---7-9-7----------------|
D|-9---9---9---9------------------(0)-|
A|---------------------------(0h2)----|
E|------------------------------------|
[END SOLO]

 Bm     G       D       Bm      G       D
e|-2------3-------2-------2-------3-------2--|
B|-3------3-------3-------3-------3-------3--|
G|-4------4-------2-------4-------4-------2--|  x2
D|-4------5-------0-------4-------5-------0--|
A|-2------5---------------2-------5----------|
E|--------3-----------------------3----------|

 Bm     G       D       Bm      G
e|-2------3-------2-------2-------3--|
B|-3------3-------3-------3-------3--|
G|-4------4-------2-------4-------4--|  x1
D|-4------5-------0-------4-------5--|
A|-2------5---------------2-------5--|
E|--------3-----------------------3--|

e|------------------------|
B|-7h8-7------------------|
G|-7---7--7h9-7-----------|     x1
D|--------7-----7---------|
A|--------------7h9-7--5--|
E|------------------------|

            
Submit corrections


        Carry You lessons Hard to play? Try these video lessons and learn fast Carry You lessons
        
↑ Back to top | Tablatures and chords for acoustic guitar and electric guitar, ukulele, drums are parodies/interpretations of the original songs. You may use it for private study, scholarship, research or language learning purposes only