Home » D » Discharge »

Discharge - The Nightmare Continues Tabs

Artists:  A B C D E F G H I J K L M N O P Q R S T U V W X Y Z # 

The Nightmare Continues Tabs

(ver. 1) Click to play this song!
Discharge
 Rating:
4/5 (4 votes)
                Tuning: E

Verse
e|---------------------------------------------------------------------------|
B|---------------------------------------------------------------------------|
G|---------------------------------------------------------------------------|
D|5-5---5-6-6---6-7-7--------------------------------------------------------|
A|3-3---3-4-4---4-5-5---2~---------------------------------------------------|
E|---------------------------------------------------------------------------|

Chorus
e|---------------------------------------------------------------------------|
B|---------------------------------------------------------------------------|
G|----5-5--4-----------------------------------------------------------------|
D|3---3-3--2-----------------------------------------------------------------|
A|1--------------------------------------------------------------------------|
E|---------------------------------------------------------------------------|            
Submit corrections

↑ Back to top | Tablatures and chords for acoustic guitar and electric guitar, ukulele, drums are parodies/interpretations of the original songs. You may use it for private study, scholarship, research or language learning purposes only