Home » D » Discharge »

Discharge - State Violence State Control Tabs

Artists:  A B C D E F G H I J K L M N O P Q R S T U V W X Y Z # 

State Violence State Control Tabs

(ver. 1) Click to play this song!
Discharge
 Rating:
2.9/5 (29 votes)
                Verse Riff 1
e|--------------------------------------------------------------|
B|--------------------------------------------------------------|
G|--------------------------------------------------------------|
D|-------------------------------9-(0)--------------------------|
A|--6--6-6-6-6-6-6-6-6-6-6-6-6---7-(0)-9--9--9-9-9--8--8-8-8-8--|
E|--4--4-4-4-4-4-4-4-4-4-4-4-4---------7--7--7-7-7--6--6-6-6-6--|
       PM....................]

Chorus Riff 2
e|---------------------|---------------------|---------------------|---------------------|
B|---------------------|---------------------|---------------------|---------------------|
G|---------------------|---------------------|---------------------|---------------------|
D|---------------------|---------------------|---------------------|---------------------|
A|--6---6---6--9--9\6--|--6---6---6--9--9\6--|--6---6---6--9--9\6--|--6---6---6--9--9\6--|
E|--4---4---4--7--7\4--|--4---4---4--7--7\4--|--4---4---4--7--7\4--|--4---4---4--7--7\4--|


e|---------------------|---------------------|---------------------|-------------------|
B|---------------------|---------------------|---------------------|-------------------|
G|---------------------|---------------------|---------------------|-------------------|
D|---------------------|---------------------|---------------------|-------------------|
A|--6---6---6--9--9\6--|--6---6---6--9--9\6--|--6---6---6--9--9\6--|--6---6---6--9--9--|
E|--4---4---4--7--7\4--|--4---4---4--7--7\4--|--4---4---4--7--7\4--|--4---4---4--7--7--|



Solo
e|--14--------------------|-15-----15----------------------|----------------------------|
B|-----------------14-12--|-----16----16-15----15----15----|-15----15----15----15----15-|
G|------------------------|-----------------16----16----16-|----16----16----16----16----|
D|------------------------|--------------------------------|----------------------------|
A|------------------------|--------------------------------|----------------------------|
E|------------------------|--------------------------------|----------------------------|


e|------------------------|---------------------|
B|--15----15----15--------|---------------------|
G|-----16----16----16-15--|--16--15-15-16-------|
A|------------------------|---------------------|
E|------------------------|---------------------|


e|------------------------|---------------------------------|-------------------------------|
B|------------------------|--11b13-----9--11--9h11p9h11p911-|-h11p9h11p9hh11p9h11p9h11p9h11-|
G|--------------------9---|---------------------------------|-------------------------------|
D|--11------11~-----------|---------------------------------|-------------------------------|
A|------------------------|---------------------------------|-------------------------------|
E|------------------------|---------------------------------|-------------------------------|



e|-----------------------------------|-------------------------------|----------------------------------|
B|--12-12-12-12-10-10-10-9-9-9-------|-------------------------------|--14----14---14p12h14p12h14p12h14-|
G|-----------------------------9-9-9-|-8-8-8----------8-8-8----------|----------------------------------|
D|-----------------------------------|-------11-11-11-------11-11-11-|----------------------------------|
A|-----------------------------------|-------------------------------|----------------------------------|
E|-----------------------------------|-------------------------------|----------------------------------|



e|-------------------------------------|--12b14----12b14-12b14-12b14-12b14r12----9------9--|
B|-12h14p12h14p12h14p12h14p12h14p12h14-|--------------------------------------------12-----|
G|-------------------------------------|---------------------------------------------------|
D|-------------------------------------|---------------------------------------------------|
A|-------------------------------------|---------------------------------------------------|
E|-------------------------------------|---------------------------------------------------|




e|-------------------------------------|------------------------------------------9------|
B|--9h12p9h12p9h12p9h12p9h12p9h12p9h12-|--12b14-----12b14-12b14-12b14-12b14r12-------11--|
G|-------------------------------------|-------------------------------------------------|
D|-------------------------------------|-------------------------------------------------|
A|-------------------------------------|-------------------------------------------------|
E|-------------------------------------|-------------------------------------------------|


e|---------------------------|--------------------------|-------------------------|
B|---9--11--9--11--9---------|--------------------------|-------------------------|
G|---------------------------|--9-9-9-9-9-9-9-9-9-9-9-9-|-8-8-8-8-8-8-8-8-8-8-8-8-|
D|---------------------------|--------------------------|-------------------------|
A|---------------------------|--------------------------|-------------------------|
E|---------------------------|--------------------------|-------------------------|


e|--14-------------------------|--14-------------------------|--14-------------------------|
B|---------------------14--12--|---------------------14--12--|---------------------14--12--|
G|-----------------------------|-----------------------------|-----------------------------|
D|-----------------------------|-----------------------------|-----------------------------|
A|-----------------------------|-----------------------------|-----------------------------|
E|-----------------------------|-----------------------------|-----------------------------|


e|--13----------13~--------13--|--14-----------------|-----------------------|
B|-----------------------------|---------------------|---------------14--12--|
G|-----------------------------|---------------------|-----------------------|
D|-----------------------------|---------------------|-----------------------|
A|-----------------------------|---------------------|-----------------------|
E|-----------------------------|---------------------|-----------------------|


e|-----------------------------|----------------------|------------------------------|
B|---------------------14--12--|--12b14r12------------|------------------------------|
G|-----------------------------|----------------------|------------------------------|
D|-----------------------------|-------------------11-|--11----------11----------11--|
A|-----------------------------|----------------------|------------------------------|
E|-----------------------------|----------------------|------------------------------|            
Submit corrections

↑ Back to top | Tablatures and chords for acoustic guitar and electric guitar, ukulele, drums are parodies/interpretations of the original songs. You may use it for private study, scholarship, research or language learning purposes only