Home » D » Dirty Projectors »

Dirty Projectors - Like Fake Blood In Crisp October Chords

Artists:  A B C D E F G H I J K L M N O P Q R S T U V W X Y Z # 

Like Fake Blood In Crisp October Chords

(ver. 1) Click to play this song!
Dirty Projectors
[Chords]

   B     F#   Gdim  E/G# G#aug   C#   E/B   Am7    G6   Gaug B/F#
E|---------------------------------------------------------------|
B|-------2-----2-----5-----5-----5-----5-----5-----5-----4-----4-|
G|-4-----3-----3-----4-----5-----6-----4-----6-----4-----4-----4-|
D|-4-----4-----5-----6-----4-----6-----6-----6-----5-----5-----4-|
A|-2-----4-----------------------4-------------------------------|
E|-------2-----3-----4-----4-----------7-----5-----3-----3-----2-|

   E   G#/D#  A/E C#7sus4 Am7b5  E     E   Badd9 D#7/G  F#7
E|-------------------------------------------7-----6-----6-|
B|-0-----------------7-----9-----12----12----4-----4-----5-|
G|-1-----4-----6-----4-----6-----9-----9-----6-----6-----6-|
D|-2-----6-----7-----6-----7-----9-----9-----4-----5-----4-|
A|-2-----6-----7-----4-----6-----11----10------------------| 
E|-0-----------------------------0-----0-------------------|


[Chorus]

    B   F#       Gdim E/G#         G#aug        C#            E/B      
The new feelings will rise up like fake blood in crisp October
Am7                     E/G#         G6   Gaug   B/F#            E
From the cracks and the edges of the graves       of our proudest moments
E                                     B
Because that's not a monument, it's a grave


[Verse]

E            G#/D#    A/E                C#7sus4  Am7b5
The new feelings will probably be buried here too

C#7sus4  Am7b5  C#7sus4  Am7b5  E  E

Badd9      D#7/G   Badd9      F#7
But        I swear they'll be born elsewhere


[Chorus]

    B   F#       Gdim E/G#         G#aug        C#            E/B      
The new feelings will rise up like fake blood in crisp October
Am7                     E/G#         G6   Gaug   B/F#            E
From the cracks and the edges of the graves       of our proudest moments
E                                     B
Because that's not a monument, it's a grave            
Submit corrections

↑ Back to top | Tablatures and chords for acoustic guitar and electric guitar, ukulele, drums are parodies/interpretations of the original songs. You may use it for private study, scholarship, research or language learning purposes only