Home » D » Dionne Warwick »

Dionne Warwick - What The World Needs Now Bass

Artists:  A B C D E F G H I J K L M N O P Q R S T U V W X Y Z # 

What The World Needs Now Bass

(ver. 1) Click to play this song!
Dionne Warwick
 Rating:
4.4/5 (22 votes)
                  Intro:
G|------------|------------|------------|------------|
D|------------|------------|------------|------------|
A|2---------2-|------------|2---------2-|------------|
E|------------|0---------0-|------------|0-----------|

  Chorus:
G|------------|------------|------------|------------|
D|------------|------------|------------|------------|
A|2---------2-|------------|2---------2-|------------|
E|------------|0---------0-|------------|0---------0-|

G|------------|------------|------------|------------|
D|------------|------------|0---------0-|0---------0-|
A|3---------3-|3---------3-|------------|------------|
E|------------|------------|------------|------------|

G|------------|------------|------------|------------|
D|------------|------------|------------|------------|
A|2---------2-|------------|2---------2-|------------|
E|------------|0---------0-|------------|0---------0-|

G|------------|------------|------------|------------|
D|------------|------------|------------|------------|
A|3---------3-|3---------3-|2---------2-|2-------2-2-|
E|------------|------------|------------|------------|

  Verse:
G|------------|------------|------------|------------|
D|------------|------------|2-----------|--------2-2-|
A|--------2---|----------2-|--------2-2-|------------|
E|0---------3-|0-----------|------------|0-----------|
               need         mountain

G|------------|------------|------------|------------|
D|0-------0-0-|----------0-|------------|------------|
A|------------|--------0---|3-------3---|3-------3-3-|
E|------------|3-----------|----------3-|------------|
  mountains    hill         nough
      
G|------------|------------|------------|------------|
D|0-------0-0-|----------0-|------------|2---------2-|
A|------------|------------|3-------3-3-|------------|
E|------------|3-------3---|------------|------------|
  oceans       rivers       nough        nough

G|------------|------------|------------|
D|------------|0-------0---|0---0---0---|
A|0-------0---|------------|------------|
E|------------|------------|------------|
      till     time

  Chorus:
G|------------|------------|------------|------------|
D|------------|------------|------------|------------|
A|2---------2-|------------|2---------2-|------------|
E|------------|0---------0-|------------|0---------0-|

G|------------|------------|------------|------------|
D|------------|------------|0---------0-|0---------0-|
A|3---------3-|3---------3-|------------|------------|
E|------------|------------|------------|------------|

G|------------|------------|------------|------------|
D|------------|------------|------------|------------|
A|2---------2-|------------|2---------2-|------------|
E|------------|0---------0-|------------|0---------0-|

G|------------|------------|------------|------------|
D|------------|------------|------------|------------|
A|3---------3-|3---------3-|2---------2-|2-------2-2-|
E|------------|------------|------------|------------|

  Verse:
G|------------|------------|------------|------------|
D|------------|------------|2-----------|--------2-2-|
A|--------2---|----------2-|--------2-2-|------------|
E|0---------3-|0-----------|------------|0-----------|
               need         meadow

G|------------|------------|------------|------------|
D|0-------0-0-|----------0-|------------|------------|
A|------------|--------0---|3-------3---|3-------3-3-|
E|------------|3-----------|----------3-|------------|
  corn         wheat        nough

G|------------|------------|------------|------------|
D|0-------0-0-|----------0-|------------|2---------2-|
A|------------|------------|3-------3-3-|------------|
E|------------|3-------3---|------------|------------|
  sunbeams     moon         nough        listen

G|------------|------------|------------|------------|
D|------------|0-------0---|0---0---0---|------------|
A|0-------0---|------------|------------|------------|
E|------------|------------|------------|3---3---0---|
      if  want know

G|------------|
D|0---0-------|
A|--------3---|
E|------------|

  Chorus:
G|------------|------------|------------|------------|
D|------------|------------|------------|------------|
A|2---------2-|------------|2---------2-|------------|
E|------------|0---------0-|------------|0---------0-|

G|------------|------------|------------|------------|
D|------------|------------|0---------0-|0---------0-|
A|3---------3-|3---------3-|------------|------------|
E|------------|------------|------------|------------|

G|------------|------------|------------|------------|
D|------------|------------|------------|------------|
A|2---------2-|------------|2---------2-|------------|
E|------------|0---------0-|------------|0---------0-|

G|------------|------------|------------|------------|
D|------------|------------|------------|0---------0-|
A|3---------3-|3---------3-|2---------2-|------------|
E|------------|------------|------------|------------|

G|------------|------------|------------|
D|------------|0-------0-0-|------------|
A|3---------3-|------------|------------|
E|------------|------------|3-----------|

  Keep repeating the below
G|------------|------------|------------|------------|
D|------------|------------|------------|------------|
A|2---------2-|------------|2---------2-|------------|
E|------------|0---------0-|------------|0---------0-|
            
Submit corrections

↑ Back to top | Tablatures and chords for acoustic guitar and electric guitar, ukulele, drums are parodies/interpretations of the original songs. You may use it for private study, scholarship, research or language learning purposes only