Home » D » Dionne Warwick »

Dionne Warwick - Anyone Who Had A Heart Bass

Artists:  A B C D E F G H I J K L M N O P Q R S T U V W X Y Z # 

Anyone Who Had A Heart Bass

(ver. 1) Click to play this song!
Dionne Warwick
 Rating:
4.3/5 (6 votes)
                Gtr I (E A D G) - 'Bass'

   [1st & 2nd Verses]
   Q=81
   9/8              6/8
   Gtr I
     H.      +Q   E   Q.   +Q   E   H.        H.
G||--1-------(1)----|-1----(1)----|---------|-2-----|
D||o--------------1-|-----------4-|-2-------|-------|
A||o----------------|-------------|---------|-------|
E||-----------------|-------------|---------|-------|


  9/8              6/8
   H.      +Q   E   Q.   +Q   E   H.        H.
G|-1-------(1)----|-1----(1)----|---------|-2-----|
D|--------------1-|-----------4-|-2-------|-------|
A|----------------|-------------|---------|-------|
E|----------------|-------------|---------|-------|


                      [Chorus]
   H.        H.         Q.   Q  E   Q.   Q  E
G|-2-------|---------||-----------|-4----4----|
D|---------|-0-------||-5----5--5-|-----------|
A|---------|---------||-----------|---------2-|
E|---------|---------||-----------|-----------|


   Q.   Q  E   Q.   Q  E   Q.   Q  E   Q.   Q  E   Q.   Q  E
G|-----------|-----------|-----------|-----------|------------|
D|-----------|-----------|-----------|-----------|------------|
A|-3----3--3-|-3----3--3-|-2----2--2-|-3----3--3-|-3----5--5--|
E|-----------|-----------|-----------|-----------|------------|


                            [Interlude]
                            9/8              6/8
   Q.   Q  E   Q.   Q  E     H.      +Q   E   Q.   +Q   E
G|-----------|-4----4--4--||-1-------(1)----|-1----(1)-----|
D|-5----5--5-|-----------o||--------------1-|-----------4--|
A|-----------|-----------o||----------------|--------------|
E|-----------|------------||----------------|--------------|


                      9/8              6/8
   H.        H.        H.      +Q   E   Q.   +Q   E
G|---------|-2-------|-1-------(1)----|-1----(1)----|
D|-2-------|---------|--------------1-|-----------4-|
A|---------|---------|----------------|-------------|
E|---------|---------|----------------|-------------|


   H.        H.        H.        H.
G|---------|-2-------|-2-------|-------||
D|-2-------|---------|---------|-0-----||
A|---------|---------|---------|-------||
E|---------|---------|---------|-------||


 [Chorus]
   Q.   Q  E   Q.   Q  E   Q.   Q  E   Q.   Q  E   Q.   Q  E
G|-----------|-4----4----|-----------|-----------|------------|
D|-5----5--5-|-----------|-----------|-----------|-5----5--5--|
A|-----------|---------2-|-3----3--3-|-3----5--5-|------------|
E|-----------|-----------|-----------|-----------|------------|


   Q.   Q  E   Q.   Q  E   Q.   Q  E   Q.   Q  E
G|-4----4----|-----------|-----------|-----------||
D|-----------|-----------|-----------|-5----5--5-||
A|---------2-|-3----3--3-|-3----5--5-|-----------||
E|-----------|-----------|-----------|-----------||


  [Out-Chorus]
     Q.   Q  E   Q.   Q  E   Q.   Q  E   Q  Q  E E
G||------------|-----------|-----------|------------|
D||o-----------|-5----5--5-|-2----2--2-|------------|
A||o-7----7--7-|-----------|-----------|-3--2--2-3--|
E||------------|-----------|-----------|------------|


              7/8          6/8
   Q  Q  E E   Q  Q  Q  E   Q.   Q  E  3x
G|-----------|------------|------------||
D|-----------|------------|------5--5-o||
A|-3--2--2-3-|-3--2--0--5-|-----------o||
E|-----------|------------|-3----------||

            
Submit corrections

↑ Back to top | Tablatures and chords for acoustic guitar and electric guitar, ukulele, drums are parodies/interpretations of the original songs. You may use it for private study, scholarship, research or language learning purposes only