» » »

Dillinger Escape Plan - Abe The Cop Tabs

Artists:  A B C D E F G H I J K L M N O P Q R S T U V W X Y Z # 

Abe The Cop Tabs

(ver. 1) Click to play this song!
Dillinger Escape Plan
 Rating:
4/5 (4 votes)

 Abe The Cop lessons Tabs too difficult? Try these video lessons and learn fast
 
                *******************************************
* Abe The Cop - The Dillinger Escape Plan *
*******************************************


s = slide

Intro:

e|-------------------------------------------------|
B|-------------------------------------------------|
G|-------------------------------------------------|
D|-------------------------------------------------|
A|-2---2s6-5---------------------------------------|
E|-2---2s6-5---------------------------------------|


Acoustic Buildup Final Section:

e|----------------|
B|----------------|
G|----------------|
D|-6-6-6-6-6-5-2--|
A|-6-6-6-6-6-5-2--|
E|-4-4-4-4-4-3-0--| x3 then ..

e|-------------------------------------------------|
B|-------------------------------------------------|
G|-------------------------------------------------|
D|-666---------------------------------------------|
A|-666---------------------------------------------|
E|-444-1s4xx4xx3xx0xx334xx4xx334xx4xx3xx0xx33444---| *Slight Pause*

Full on distortion:

e|-------------------------------------------------|
B|-------------------------------------------------|
G|-------------------------------------------------|
D|-------------------------------------------------|
A|-6666665552225566665566666655522255666-----------|
E|-4444443330003344443344444433300033444-----------|

e|-------------------------------------------------|
B|-------------------------------------------------|
G|-------------------------------------------------|
D|-------------------------------------------------|
A|-41341341300000000413413413000000004134132---2s6-|
E|-41341341300000000413413413000000004134132---2s6-|

Those are the beginning and (near the) end parts of the song but the soloing parts are
            
Submit corrections


        Abe The Cop lessons Hard to play? Try these video lessons and learn fast Abe The Cop lessons
        
↑ Back to top | Tablatures and chords for acoustic guitar and electric guitar, ukulele, drums are parodies/interpretations of the original songs. You may use it for private study, scholarship, research or language learning purposes only