Home » D » Diiv »

Diiv - Valentine Tabs

Artists:  A B C D E F G H I J K L M N O P Q R S T U V W X Y Z # 

Valentine Tabs

(ver. 1) Click to play this song!
Diiv
INTRO/VERSE:
 (no guitar)

CHORUS:
e|--------------------------|--------------------------|
B|--------------------------|--------------------------|
G|-11-11-11-11--11-11-11-11-|-11----------------9----9-|
D|--------------------------|----11-9-11----7-9--------|
A|--------------------------|--------------------------|
E|--------------------------|--------------------------|

e|------------------|----------------------|
B|------------------|----------------------|
G|-7-7-7-7--7-7-7-7-|-6--------------------|
D|------------------|---9-7-9--------9---7-|
A|------------------|------------7-9-------|
E|------------------|----------------------|

VERSE:
e|-----|
B|-----|
G|-----|
D|-----|
A|-9---|
E|-----|

Repeat CHORUS [x2]

BEFORE SOLO: (with delay)
e|----------------------|
B|----------------------|
G|----------------------| note continues with delay
D|----------------------| for 7 more measures
A|-9---(9)---(9)---(9)--|
E|----------------------|

SOLO:
  Guitar 1
e|-21-19-17-19--17----17----|--------------------------|
B|-----------------19----19-|-17-19-17-----17----------|
G|--------------------------|----------18-----18-16-18-|
D|--------------------------|--------------------------|
A|--------------------------|--------------------------|
E|--------------------------|--------------------------|

e|--------------------------|--------------------------|
B|--------------------------|--------------------------|
G|-16----16--------14-------|--------------------------|
D|----19----19--16----16-14-|-16-14----14--------------|
A|--------------------------|-------16-----16-14----14-|
E|--------------------------|--------------------17----|
  Guitar 2
e|-----0-----------0-----------0-----------0---|
B|---0---2-------0---2-------0---2-------0---2-|
G|-2-----------2-----------2-----------2-------|
D|---------------------------------------------|
A|---------------------------------------------|
E|---------------------------------------------| [x2]
  Guitar 3 (very low in the mix)
e|---------------------------------------|---------------------------------------|
B|---------------------------------------|---------------------------------------|
G|-11|||||||-||||||||-14|||||||-||||||||-|-11|||||||-||||||||-14|||||||-9|||||||-|
D|-x-|||||||-||||||||-x-|||||||-||||||||-|-x-|||||||-||||||||-x-|||||||-x|||||||-|
A|-9-|||||||-||||||||-12|||||||-||||||||-|-9-|||||||-||||||||-12|||||||-7|||||||-|
E|---------------------------------------|---------------------------------------| [x4]
    "||||" = repeat the notes before it (it's to save space)

VERSE:
e|-----0--------0----------|
B|---0----2-------2-0------|
G|-2-------------------2-2-|
D|-------------------------|
A|-------------------------|
E|-------------------------|

Repeat CHORUS [x2]
Repeat BEFORE SOLO
            
Submit corrections

↑ Back to top | Tablatures and chords for acoustic guitar and electric guitar, ukulele, drums are parodies/interpretations of the original songs. You may use it for private study, scholarship, research or language learning purposes only