Home » D » Diiv »

Diiv - Under The Sun Tabs

Artists:  A B C D E F G H I J K L M N O P Q R S T U V W X Y Z # 

Under The Sun Tabs

(ver. 1) Click to play this song!
Diiv
Intro
-----

Guitar 1
e|------------------------------------------------|
B|------------------------------------------------|
G|-------------------------------14----14----14---|   
D|------------------------------------------------| 7  x then bass starts, 
A|-12----12----12----12----12---------------------| 15 x then 2. Guitar starts
E|------------------------------------------------|
   1  e  +  a  2  e  +  a  3  e  +  a  4  e  +  a      

  
Bass

G|---------------------------------|---------------------------------|
D|---------------------5-------7---|---------------------------------|
A|---------------------------------|---------------------------------|
E|---------------------------------|-5-------5-------5-------5-------|
   1 e + a 2 e + a 3 e + a 4 e + a   1 e + a 2 e + a 3 e + a 4 e + a   

G|---------------------------------|---------------------------------|
D|---------------------5-------7\\\|\\\\\0-------0---0-------0---0---|
A|---------------------------------|---------------------------------|
E|-5-------5-------5---------------|---------------------------------|
   1 e + a 2 e + a 3 e + a 4 e + a   1 e + a 2 e + a 3 e + a 4 e + a   

G|---------------------------------|---------------------------------|
D|-----0---0-------0---0---0---0---|---------------------------------|
A|---------------------------------|-3-------3-------3---3---3-------|
E|---------------------------------|---------------------------------|
   1 e + a 2 e + a 3 e + a 4 e + a   1 e + a 2 e + a 3 e + a 4 e + a   

G|---------------------------------|---------------------------------|
D|---------------3/5---5---5---7---|---------------------------------|
A|-3---3---3-----------------------|---------------------------------|
E|---------------------------------|-5-------5---5---5-------5-------|
   1 e + a 2 e + a 3 e + a 4 e + a   1 e + a 2 e + a 3 e + a 4 e + a   

G|---------------------------------|
D|---------------------------------|
A|---------------------------------|
E|-5-------5-------5---------------|
   1 e + a 2 e + a 3 e + a 4 e + a  
                   ^after that note immediately repeat from beginning


Guitar 2
e|---------------------------------|---------------------------------|
B|---------------------------------|---------------------------------|
G|---------------------------------|---------------------------------|
D|---------------------------------|---------------------------------|
A|----------------------------(5)--|----(5)-----(4)------------------|
E|---------------------------------|---------------------------------|
   1 e + a 2 e + a 3 e + a 4 e + a   1 e + a 2 e + a 3 e + a 4 e + a 

e|---------------------------------|---------------------------------|
B|---------------------------------|---------------------------------|
G|---------------------------------|---------------------------------|
D|-2---2---0-------2---2---0-------|-2---2---0-------2---2---0-------|
A|---------------------------------|---------------------------------|
E|---------------------------------|---------------------------------|
   1 e + a 2 e + a 3 e + a 4 e + a   1 e + a 2 e + a 3 e + a 4 e + a 

e|---------------------------------|---------------------------------|
B|---------------------------------|---------------------------------|
G|---------------------------------|---------------------------------|
D|-4---4---0-------4---4---0-------|-4---4---0-------4---4---0-------|
A|---------------------------------|---------------------------------|
E|---------------------------------|---------------------------------|
   1 e + a 2 e + a 3 e + a 4 e + a   1 e + a 2 e + a 3 e + a 4 e + a 

e|---------------------------------|---------------------------------|
B|---------------------------------|---------------------------------|
G|---------------------------------|---------------------------------|
D|-5---5---0-------5---5---0-------|-5---5---0-----7/9---9---0-------|
A|---------------------------------|---------------------------------|
E|---------------------------------|---------------------------------|
   1 e + a 2 e + a 3 e + a 4 e + a   1 e + a 2 e + a 3 e + a 4 e + a 

e|---------------------------------|---------------------------------|
B|---------------------------------|---------------------------------|
G|-----------------------------7---|-----7-------6-------------------|
D|-7---7---0-------7---7---0-------|---------------------------------|
A|---------------------------------|---------------------------------|
E|---------------------------------|---------------------------------|
   1 e + a 2 e + a 3 e + a 4 e + a   1 e + a 2 e + a 3 e + a 4 e + a 




Chorus (Play 3x)
------

(1st time just guitar)

Yes, I'll come back to you
No, I won't ask where you run
Under the sun

Yes, I come back to you
Then I'll ask, "what have we done?"
Under the sun

e|------------------------------------------------|------------------------------------------------|
B|------------------------------------------------|------------------------------------------------|
G|------------------------------------------------|-11---------------------------------------------|
D|-------------14----------------12---------------|-------------------11---------------------------|
A|------------------------------------------------|-------------------------------------14----12---|
E|------------------------------------------------|------------------------------------------------|
   1  e  +  a  2  e  +  a  3  e  +  a  4  e  +  a   1  e  +  a  2  e  +  a  3  e  +  a  4  e  +  a

e|------------------------------------------------|------------------------------------------------|
B|------------------------------------------------|------------------------------------------------|
G|------------------------------------------------|-11---------------------------------------------|
D|-------------14----------------12---------------|-------------------11---------------------------|
A|------------------------------------------------|-------------------------------------14----12---|
E|------------------------------------------------|------------------------------------------------|
   1  e  +  a  2  e  +  a  3  e  +  a  4  e  +  a   1  e  +  a  2  e  +  a  3  e  +  a  4  e  +  a

e|------------------------------------------------|------------------------------------------------|
B|------------------------------------------------|------------------------------------------------|
G|------------------------------------------------|-11---------------------------------------------|
D|-------------14----------------12---------------|-------------------11---------------------------|
A|------------------------------------------------|-------------------------------------14----12---|
E|------------------------------------------------|------------------------------------------------|
   1  e  +  a  2  e  +  a  3  e  +  a  4  e  +  a   1  e  +  a  2  e  +  a  3  e  +  a  4  e  +  a

e|------------------------------------------------|------------------------------------------------|
B|------------------------------------------------|------------------------------------------------|
G|------------------------------------------------|------------------------------------------------|
D|-------------------11----------11---------------|-------------------11----------11---------------|
A|-------12----14----------------------14----12---|-------12----14----------------------14----12---|
E|------------------------------------------------|------------------------------------------------|
   1  e  +  a  2  e  +  a  3  e  +  a  4  e  +  a   1  e  +  a  2  e  +  a  3  e  +  a  4  e  +  a




Verse 1 (Play 2x)
-------

e|------------------------------------------------|------------------------------------------------|
B|------------------------------------------------|------------------------------------------------|
G|------------------------------------------------|-------------11----------12----------14---------|
D|-------------------------11----------12---------|-14---------------------------------------------|
A|-12----------14---------------------------------|------------------------------------------------|
E|------------------------------------------------|------------------------------------------------|
   1  e  +  a  2  e  +  a  3  e  +  a  4  e  +  a   1  e  +  a  2  e  +  a  3  e  +  a  4  e  +  a

e|------------------------------------------------|-------------12---------------------------------|
B|------------------------------------------------|-------------------------15----------14----12---|
G|------------------------------------------------|------------------------------------------------|
D|-------------------------11----------12---------|-14---------------------------------------------|
A|-12----------14---------------------------------|------------------------------------------------|
E|------------------------------------------------|------------------------------------------------|
   1  e  +  a  2  e  +  a  3  e  +  a  4  e  +  a   1  e  +  a  2  e  +  a  3  e  +  a  4  e  +  a

e|------------------------------------------------|------------------------------------------------|
B|------------------------------------------------|------------------------------------------------|
G|-14---------------------------------------------|-------------------------11----------12---------|
D|-------------------------------------11---------|-12----------14---------------------------------|
A|-------------12----------14---------------------|------------------------------------------------|
E|------------------------------------------------|------------------------------------------------|
   1  e  +  a  2  e  +  a  3  e  +  a  4  e  +  a   1  e  +  a  2  e  +  a  3  e  +  a  4  e  +  a

e|------------------------------------------------|-------------------12----------14----------15---|
B|-------12----------------12----------12----14---|-------15---------------------------------------|
G|-14----------14----------------14---------------|------------------------------------------------|
D|------------------------------------------------|------------------------------------------------|
A|------------------------------------------------|------------------------------------------------|
E|------------------------------------------------|------------------------------------------------|
   1  e  +  a  2  e  +  a  3  e  +  a  4  e  +  a   1  e  +  a  2  e  +  a  3  e  +  a  4  e  +  a




Chorus (Play 3x)
------

(1st time just guitar)

To be free, be awake
Big breath that you can't fake
Once you've begun

Press my face to the back
All the pillars that stack
And hold up the sun


e|------------------------------------------------|------------------------------------------------|
B|------------------------------------------------|------------------------------------------------|
G|------------------------------------------------|-11---------------------------------------------|
D|-------------14----------------12---------------|-------------------11---------------------------|
A|------------------------------------------------|-------------------------------------14----12---|
E|------------------------------------------------|------------------------------------------------|
   1  e  +  a  2  e  +  a  3  e  +  a  4  e  +  a   1  e  +  a  2  e  +  a  3  e  +  a  4  e  +  a

e|------------------------------------------------|------------------------------------------------|
B|------------------------------------------------|------------------------------------------------|
G|------------------------------------------------|-11---------------------------------------------|
D|-------------14----------------12---------------|-------------------11---------------------------|
A|------------------------------------------------|-------------------------------------14----12---|
E|------------------------------------------------|------------------------------------------------|
   1  e  +  a  2  e  +  a  3  e  +  a  4  e  +  a   1  e  +  a  2  e  +  a  3  e  +  a  4  e  +  a

e|------------------------------------------------|------------------------------------------------|
B|------------------------------------------------|------------------------------------------------|
G|------------------------------------------------|-11---------------------------------------------|
D|-------------14----------------12---------------|-------------------11---------------------------|
A|------------------------------------------------|-------------------------------------14----12---|
E|------------------------------------------------|------------------------------------------------|
   1  e  +  a  2  e  +  a  3  e  +  a  4  e  +  a   1  e  +  a  2  e  +  a  3  e  +  a  4  e  +  a

e|------------------------------------------------|------------------------------------------------|
B|------------------------------------------------|------------------------------------------------|
G|------------------------------------------------|------------------------------------------------|
D|-------------------11----------11---------------|-------------------11----------11---------------|
A|-------12----14----------------------14----12---|-------12----14----------------------14----12---|
E|------------------------------------------------|------------------------------------------------|
   1  e  +  a  2  e  +  a  3  e  +  a  4  e  +  a   1  e  +  a  2  e  +  a  3  e  +  a  4  e  +  a




Bridge
------

e|---------------------------------|---------------------------------|
B|---------------------------------|---------------------------------|
G|------------------------ (Hard to tell exact timing, --------------| 12x
D|---------0---2---- but definitely open D and E for 12 bars) -------|
A|---------------------------------|---------------------------------|
E|---------------------------------|---------------------------------|

(4x just guitar)

On the right side coming on the right time
On the right time coming on the right side
(x4)

e|---------------------------------|---------------------------------|
B|-7---7---0-------7---7---0-------|-7---7---0-------7---7---0-------|
G|---------------------------------|---------------------------------|
D|---------------------------------|---------------------------------|
A|---------------------------------|---------------------------------|
E|---------------------------------|---------------------------------|
   1 e + a 2 e + a 3 e + a 4 e + a   1 e + a 2 e + a 3 e + a 4 e + a 

e|---------------------------------|---------------------------------|
B|-7---7---0-------7---7---0-------|-7---7---0-------7---7---0-------|
G|---------------------------------|---------------------------------|
D|---------------------------------|---------------------------------|
A|---------------------------------|---------------------------------|
E|---------------------------------|---------------------------------|
   1 e + a 2 e + a 3 e + a 4 e + a   1 e + a 2 e + a 3 e + a 4 e + a 

e|---------------------------------|---------------------------------|
B|-2---2---0-------2---2---0-------|-2---2---0-------2---2---0-------|
G|---------------------------------|---------------------------------|
D|---------------------------------|---------------------------------|
A|---------------------------------|---------------------------------|
E|---------------------------------|---------------------------------|
   1 e + a 2 e + a 3 e + a 4 e + a   1 e + a 2 e + a 3 e + a 4 e + a 

e|---------------------------------|---------------------------------|
B|-2---2---0-------2---2---0-------|-5---5---0-------5---5---0-------|
G|---------------------------------|---------------------------------|
D|---------------------------------|---------------------------------|
A|---------------------------------|---------------------------------|
E|---------------------------------|---------------------------------|
   1 e + a 2 e + a 3 e + a 4 e + a   1 e + a 2 e + a 3 e + a 4 e + a 

e|---------------------------------|---------------------------------|
B|-7---7---0-------7---7---0-------|-7---7---0-------7---7---0-------|
G|---------------------------------|---------------------------------|
D|---------------------------------|---------------------------------|
A|---------------------------------|---------------------------------|
E|---------------------------------|---------------------------------|
   1 e + a 2 e + a 3 e + a 4 e + a   1 e + a 2 e + a 3 e + a 4 e + a 

e|---------------------------------|---------------------------------|
B|-7---7---0-------7---7---0-------|-7---7---0-------7---7---0-------|
G|---------------------------------|---------------------------------|
D|---------------------------------|---------------------------------|
A|---------------------------------|---------------------------------|
E|---------------------------------|---------------------------------|
   1 e + a 2 e + a 3 e + a 4 e + a   1 e + a 2 e + a 3 e + a 4 e + a 

e|---------------------------------|---------------------------------|
B|-2---2---0-------2---2---0-------|-2---2---0-------2---2---0-------|
G|---------------------------------|---------------------------------|
D|---------------------------------|---------------------------------|
A|---------------------------------|---------------------------------|
E|---------------------------------|---------------------------------|
   1 e + a 2 e + a 3 e + a 4 e + a   1 e + a 2 e + a 3 e + a 4 e + a 

e|---------------------------------|---------------------------------|
B|-2---2---0-------2---2---0-------|-5---5---0-------5---5---0-------|
G|---------------------------------|---------------------------------|
D|---------------------------------|---------------------------------|
A|---------------------------------|---------------------------------|
E|---------------------------------|---------------------------------|
   1 e + a 2 e + a 3 e + a 4 e + a   1 e + a 2 e + a 3 e + a 4 e + a 





Outro
-----

e|------------------------------------------------|------------------------------------------------|
B|------------------------------------------------|------------------------------------------------|
G|------------------------------------------------|-11---------------------------------------------|
D|-------------14----------------12---------------|-------------------11---------------------------|
A|------------------------------------------------|-------------------------------------14----12---|
E|------------------------------------------------|------------------------------------------------|
   1  e  +  a  2  e  +  a  3  e  +  a  4  e  +  a   1  e  +  a  2  e  +  a  3  e  +  a  4  e  +  a

e|------------------------------------------------|------------------------------------------------|
B|------------------------------------------------|------------------------------------------------|
G|------------------------------------------------|-11---------------------------------------------|
D|-------------14----------------12---------------|-------------------11---------------------------|
A|------------------------------------------------|-------------------------------------14----12---|
E|------------------------------------------------|------------------------------------------------|
   1  e  +  a  2  e  +  a  3  e  +  a  4  e  +  a   1  e  +  a  2  e  +  a  3  e  +  a  4  e  +  a

e|------------------------------------------------|------------------------------------------------|
B|------------------------------------------------|------------------------------------------------|
G|------------------------------------------------|-11---------------------------------------------|
D|-------------14----------------12---------------|-------------------11---------------------------|
A|------------------------------------------------|-------------------------------------14----12---|
E|------------------------------------------------|------------------------------------------------|
   1  e  +  a  2  e  +  a  3  e  +  a  4  e  +  a   1  e  +  a  2  e  +  a  3  e  +  a  4  e  +  a

e|------------------------------------------------|------------------------------------------------|
B|------------------------------------------------|------------------------------------------------|
G|------------------------------------------------|------------------------------------------------|
D|-------------------11---------------------------|-------------------11----------14---------------|
A|-------12----14----------------14----------12---|-------12----14----------------------------12---|
E|------------------------------------------------|------------------------------------------------|
   1  e  +  a  2  e  +  a  3  e  +  a  4  e  +  a   1  e  +  a  2  e  +  a  3  e  +  a  4  e  +  a

e|------------------------------------------------|
B|------------------------------------------------|
G|------------------------------------------------|
D|------------------------------------------------|
A|-12---------------------------------------------|
E|------------------------------------------------|
   1  e  +  a  2  e  +  a  3  e  +  a  4  e  +  a              
Submit corrections

↑ Back to top | Tablatures and chords for acoustic guitar and electric guitar, ukulele, drums are parodies/interpretations of the original songs. You may use it for private study, scholarship, research or language learning purposes only