Home » D » Diiv »

Diiv - Take Your Time Tabs

Artists:  A B C D E F G H I J K L M N O P Q R S T U V W X Y Z # 

Take Your Time Tabs

(ver. 1) Click to play this song!
Diiv
INTRO:                                    [x2]
e|----------------------------------0---------|
B|---------0----------------0---------0-------|
G|------12---12----------12---12--------12----|
D|---10---------10----10---------10--------10-|
A|-0----------------0-------------------------|
E|--------------------------------------------|

VERSE:                                    [x2]                               [x2]
e|----------------------------------0---------|--------------------------0-------|
B|---------0----------------0---------0-------|-------0------------0-------0-----|
G|------12---12----------12---12--------12----|-----5---5--------5---5-------5---|
D|---10---------10----10---------10--------10-|---3-------3----3-------3-------3-|
A|-0----------------0-------------------------|-0------------0-------------------|
E|--------------------------------------------|----------------------------------|

CHORUS:
  Guitar 1
e|----------------------------|
B|----------------------------|
G|----------------------------|
D|-10---10--7-7--12-12--14-14-|
A|----0-----------------------|
E|----------------------------| [x8]
  Guitar 2 (starts on 5th repetition of gtr 1)
e|----------------------------|
B|----------------15-15-17-17-|
G|-16-17\14-14-14-------------|
D|----------------------------|
A|----------------------------|
E|----------------------------| [x4]
  Guitar 3 (same as VERSE)

Repeat VERSE [x2] (at 00:50)
Repeat CHORUS

VERSE VARIATION: (repeat until 04:09)
e|----------------------|---------------------------|
B|----------------------|-------------6---5---6-----|
G|---0----0-----0-----0-|---0----0----------------0-|
D|-55---55---55----55---|-55---55---5---5---5---5---|
A|----------------------|---------------------------|
E|----------------------|---------------------------|

BRIDGE: (02:30)
  Guitar 1
e|-------------------------------------|
B|-------------------------------------|
G|-----------9\\----------------9\\----|
D|-7---7--9--------7--9---9--10------7-|
A|-0-----------------------------------|
E|-------------------------------------| [x32]
  Guitar 2 (harmony)
e|--------------------------------------|
B|-----------17\\---------------17\\----|
G|-14--14-16-------14-16--16-17------14-|
D|--------------------------------------|
A|--------------------------------------|
E|--------------------------------------|
  Guitar 3 (slide layer)
e|--------------------------------------|
B|--------------------------------------|
G|--------------------------------------|
D|-----------14\\---------------14\\----|
A|--------------------------------------|
E|--------------------------------------|            
Submit corrections

↑ Back to top | Tablatures and chords for acoustic guitar and electric guitar, ukulele, drums are parodies/interpretations of the original songs. You may use it for private study, scholarship, research or language learning purposes only