Home » D » Diiv »

Diiv - Out Of Mind Tabs

Artists:  A B C D E F G H I J K L M N O P Q R S T U V W X Y Z # 

Out Of Mind Tabs

(ver. 1) Click to play this song!
Diiv
[Intro]
e|---------------------------------------------------------------|
B|--8-7--------8-7--------8-7------------------------------------|
G|---------7----------7----------7-9/11-11-11-11-11\9------------|
D|------9----------9----------9----------------------------------|
A|---------------------------------------------------------------|
E|---------------------------------------------------------------|

[Main Riff]
e|-----------------------7-10\-------------------------7-10\-----|
B|-------------7-10-7/10---------------------7-10-7/10-----------|
G|-----7-9-7/9-----------------------7-9-7/9---------------------|
D|--/9----------------------------/9-----------------------------|
A|---------------------------------------------------------------|
E|---------------------------------------------------------------|

e|--------------7------------------------------------------------|
B|-----7-5/7-10--------------------------------------------------|
G|-7-9-----------------------------------------------------------|
D|---------------------------------------------------------------|
A|---------------------------------------------------------------|
E|---------------------------------------------------------------|

[Verse] x2
e|---------------------------------------------------------------|
B|--8-7--------8-7--------8-7------------------------------------|
G|---------7----------7----------7-9/11-11-11-11-11\9------------|
D|------9----------9----------9----------------------------------|
A|---------------------------------------------------------------|
E|---------------------------------------------------------------|

[Main Riff] 
e|-----------------------7-10\-------------------------7-10\-----|
B|-------------7-10-7/10---------------------7-10-7/10-----------|
G|-----7-9-7/9-----------------------7-9-7/9---------------------|
D|--/9----------------------------/9-----------------------------|
A|---------------------------------------------------------------|
E|---------------------------------------------------------------|

e|--------------7---------------------------7-10\----------------|
B|-----7-5/7-10-------------------7-10-7/10----------------------|
G|-7-9--------------------7-9-7/9--------------------------------|
D|---------------------/9----------------------------------------|
A|---------------------------------------------------------------|
E|---------------------------------------------------------------|

e|-----------------------7-10\--12-14-12-10----------------------|
B|-------------7-10-7/10--------------------12/15\12-10----------|
G|-----7-9-7/9---------------------------------------------------|
D|--/9-----------------------------------------------------------|
A|---------------------------------------------------------------|
E|---------------------------------------------------------------|

[Verse] x2
e|---------------------------------------------------------------|
B|--8-7--------8-7--------8-7------------------------------------|
G|---------7----------7----------7-9/11-11-11-11-11\9------------|
D|------9----------9----------9----------------------------------|
A|---------------------------------------------------------------|
E|---------------------------------------------------------------|

[Bridge] x2
e|---------------------------------------------------------------|
B|-12--12-10-----------------------------------------------------|
G|-----------9-9/11-11-11-9-9-7-------------------------7-7-9-9--|
D|------------------------------9-9-11b12r11-11b12r11-9----------|
A|---------------------------------------------------------------|
E|---------------------------------------------------------------|

e|----9b10r9-----------------------------------------------------|
B|-12--------7------10-------------------------------------------|
G|-------------9-9-9----7----------------------------------------|
D|------------------------10-9-7---------------------------------|
A|-------------------------------10-9-7-5------------------------|
E|---------------------------------------------------------------|

[Outro]
e|---------------------------------------------------------------|
B|------------------------7-7----------------------------7-7-----|
G|--------7-7-4/7-9-9-7/9-----9-7---------7-7-4/7-9-9-7/9----9-7-|
D|-9-9-7/9-------------------------9-9-7/9-----------------------|
A|---------------------------------------------------------------|
E|---------------------------------------------------------------|

e|---------------------------------------------------------------|
B|------------------------7-7-5/7-10-10-7/10---------------------|
G|--------7-7-4/7-9-9-7/9----------------------------------------|
D|-9-9-7/9-------------------------------------------------------|
A|---------------------------------------------------------------|
E|---------------------------------------------------------------|

e|-7-7-5/7-10-10-7/10-12-12-10-7---------------------------------|
B|---------------------------------------------------------------|
G|---------------------------------------------------------------|
D|---------------------------------------------------------------|
A|---------------------------------------------------------------|
E|---------------------------------------------------------------|            
Submit corrections

↑ Back to top | Tablatures and chords for acoustic guitar and electric guitar, ukulele, drums are parodies/interpretations of the original songs. You may use it for private study, scholarship, research or language learning purposes only