Home » D » Diamond Rio »

Diamond Rio - Stuff Tabs

Artists:  A B C D E F G H I J K L M N O P Q R S T U V W X Y Z # 

Stuff Tabs

(ver. 1) Click to play this song!
Diamond Rio
Stuff 
   by Diamond Rio

-------------------
-------------------


Performance Notes:  This is the best I can do with the solos and all
that rot, so, any recommendations are welcome.  I'm stuck in a rut with 
the extremely fast riff at the end of the solo and the end of the first
riff of the extro.  Don't be timid on your potential improvement ideas
for this, just tell me! 
  If you want to play it as jimmy, don't kill yourselves, because this 
has been the most difficult piece I've had to reproduce. I've spent an 
hour or two working on the last riff alone!!! And I have a device that 
slows the tempo of the song, so..phew! 


Intro:
  C9
e-----0---------------0-----|------------------------------------------|
B-3---------------3---------|------------------------------------------|
G---3---3-----3-----3---3---|----some kind of wah riff-with-a----------|
D-----------2---2-----------|------Danelectro-Baritone-Guitar----------| 
A---------3-----------------|------------------------------------------|
E---------------------------|------------------------------------------|

            G                 D              G                    D
e-------------10--------------0---------------------------------------|
B-8-8-8-10^12-----8-8-8-10^12---10-----------0h2^3----------2^3-------|
G----------------------------------8--0h2h3----------0h2h3------------|
D---------------------------------------------------------------------| 
A----------------------------------------------------------------4\5--|
E---------------------------------------------------------------------|


Verse 1
G                         D
Catalog's filling up the mail box
G                     D
Home shopping on the cable box
G   D      Em         C     D       
W-w-w dot, oh there's no escape.

G                         D
Delivery truck comin' up round the bend,
G                     D
Beep beep beep, just back it in.
         G                D
Sign 'n here 'n here and here again,
              Em             D                 C
Cause there's no money down, no payments 'til,
                    D                     
The whole place is cram-pack filled with


Chorus:
G         
Stuff.   
     (Stuff)
D                         C	 
Stack it on, stack it on up
D                     G
Never gonna ever get enough
                            (Stuff)
D              Em             D             C             D                            
Ho, ho, it's treasure to the smile man it ain't worth a dime, it's
G
Stuff
     (Stuff)
D                      C                       D               
Spreadin' like fleas draggin' me under in an endless sea of
G
Stuff
     (Stuff)
D                              Em           D       C             C7 
Are there ain't no end, gotta get a bigger place so I can move in
      G
More Stuff.

Instrumental Break:
          G
e---------7--5-3--2-----------------|
B---------8--6-5--3-----------------|
G-----7-9-----------4p2-------------|
D-7h9-------------------3h4-----0---| 
A---------------------------3h4-----|
E-----------------------------------|

Verse 2

It's gettin' late but it's all right

Get-it-all mart's open up all night.

You can catch it all with a quick swipe


Get's easier ev'ry day.


 SUV's and mini-vans,
e------------------------------------|
B------------------------------------|
G-------------------------------2h3--|
D---------------------------2h4------| 
A---------------------3h4h5----------|
E-0h3--------------------------------|

 Parading round in caravans;
e-----------------------------------------------|
B-----------------------------------------7^8---|
G---------------------------------------5-------|
D-----------------------------3h4h5h6\7---------| 
A-----------------------------------------------|
E-----------------------------------------------|

Toting off more than tire-skin stand, 

'Cause there's no money down, no payments 'til;

Every square inch of the whole world's filled with 

Chorus:
G         
Stuff.   
     (Stuff)
D                         C	 
Stack it on, stack it on up
D                     G
Never gonna ever get enough
                            (Stuff)
D              Em             D             C             D                            
Ho, ho, it's treasure to the smile man it ain't worth a dime, it's
G
Stuff
     (Stuff)
D                      C                       D               
Spreadin' like fleas draggin' me under in an endless sea of
G
Stuff
     (Stuff)
D                              Em           D       C             C7 
Are there ain't no end, gotta get a bigger place so I can move in
N.C      
More Stuff.


Solo:

e-------------------------3------------------------8-7----------5--3--2-|
B----------------------3--3^5^3----------------------8------------------|
G--------------------2----------5/0----------5-7^9------0---0---5--4--2-|
D--------------0h2h4---------------------5h7--------------4-------------| 
A--------0h2h3-----------------------5\7--------------------------------|
E-3/0-------------------------------------------------------------------|

e----------------------------------------------10^12--|
B-------5-3-3-3\1\3\1-----------------------10--------|
G-------------------------------------4h7^9-----------|
D-0-----5-4-4-4\2\4\2---0-------4h5h7-----------------| 
A---4\5-------------------4h5h7-----------------------|
E-----------------------------------------------------|
                                       Oh          
Bridge:
Em
Drag it in
D
Pack it in
     C                 D
The man with the most, he just wins more

Chorus:
N.C         
Stuff.   
     (Stuff)
 
Stack it on, stack it on up

Never gonna ever get enough
                            (Stuff)
               Em             D             C             D                            
Ho, ho, it's treasure to the smile man it ain't worth a dime, it's
G
Stuff
     (Stuff)
D                      C                       D               
Spreadin' like fleas draggin' me under in an endless sea of
G
Stuff
     (Stuff)
D                              Em           D       C             C7 
Are there ain't no end, gotta get a bigger place so I can move in
                G
More,oh, more Stuff.

Extro:

e-3----2------------------0------9-9^10--|
B---------------------------7\10---------|
G-2^4--2----------0h2\4h5----------------|
D-----------0h2h4------------------------| 
A----------------------------------------|
E----------------------------------------|

Oh Stuff
e---------------------------------------------|
B---------------------------------------------|
G------------------0-----0-----0--------------|
D--------------0-----4h5---4h5---4p3p0---0----| 
A----------2h3-------------------------3------|
E----2h3--------------------------------------|

Never get enough
e-----------------------------------5------------1----0-3---0----6--8---|
B-------------------------------------4^5------1----4---5---------------|
G-------------------------2---2h3\5--------0h3------------8---7--7--7^9-|
D-------------------0h3\5-----------------------------------------------| 
A---------1h3-3-1h3-----------------------------------------------------|
E-----------------------------------------------------------------------|


Stuff
e-----------7--5-3--2-----------------------|
B-----------8--6-5--3-----------------------|
G-5-----7-9-----------4p3p2-----------------|
D---7\9---------------------3h4-----0-------| 
A-------------------------------3h4---------|
E---------------------------------------3\0-|
            
Submit corrections

↑ Back to top | Tablatures and chords for acoustic guitar and electric guitar, ukulele, drums are parodies/interpretations of the original songs. You may use it for private study, scholarship, research or language learning purposes only