Home » D » Diamond Rio »

Diamond Rio - It's All in Your Head Tabs

Artists:  A B C D E F G H I J K L M N O P Q R S T U V W X Y Z # 

It's All in Your Head Tabs

(ver. 1) Click to play this song!
Diamond Rio
It's all in your head
            by Diamond Rio

-----------------------  
----------------------


Performance Notes: I've pretty much tabbed everything as I thought
the notes were on the neck (Play it like it is).  So there are some 
un-economical fingerings in the transcr i ption.  Also, Jimmy Olander
has B and G benders on his guitar so the bends might not be attainable
without such devices. On a more positive note: Play it so it sounds good
to you. Enjoy.
 
Typically unfamiliar chords used:

A5
x02255

Gtr 1: Fender Telecaster equipped with B and G benders
Gtr 2: Acoustic 

Tuning: Standard (EADGBe)

  Gtr. 2              Gtr. 1
e-------------------|---------------------------|-------------------|
B----------1p0------|------------------1p0------|---2-2--0-2---2b-2-|
G------0h2-----2p0--|--------------0h2-----2p0--|---2-2--2-2---2--2-|
D--0h2--------------|----------0h2--------------|-------------------| 
A-------------------|---------------------------|-0----------0------|
E-------------------|--3br----------------------|-------------------|

                         Mama died young. . .
e---------------------------|
B---------------1p0---------|
G-----------0h2-----2p0-----|
D-----2p0h2-----------------| 
A-0h3--------------------0--|
E---------------------------|

Verse 1
A5
Mama died young giving birth to a son in a home for wayward 
girls
e----------------|
B----------------|
G---------0h2----|
D-----0h2--------| 
A-------------0--|
E----------------|

Papa was a sidewalk, soapbox preacher looking forward to the end of the 
world              
                   D  
e---------------------|
B------------------3--|
G----------0h2-----2--|
D------0h2-------0----| 
A---------------------|
E---------------------|   

   D
Every friday night he'd pick Jesus a fight 
down at the local pool hall      
                                A  
e--------5-------------------------|
B----------------------------------|
G-0-----------0--------------------|
D-----4------------------4----0----| 
A-------------------------------0--|
E----------------------------------|
A5
Racking up souls, condemning all those caught behind 
the eightball
                       E
e-------------------------|
B-------------------------|
G-------------------------|
D------------------0h2----| 
A--------------0h2--------|
E----------------------0--|
         E
He said "I preach the light, the light shows the way, don't ever trust what 
the government say    
                        A
e---------------------------|
B---------------------------|
G---------------------------|
D---------------------------| 
A-------------------3br-0---|
E---------------------------|
         N.C
we never walked on the moon, Elvis ain't dead, you ain't goin' crazy, it's 
all in your head"


Break:
e----------------------------------------------------------------------|
B------------------------------------------------------------1p2-------|
G---------------0h2----2--2----0----2---2b-2-------------0h2-----2p0---|
D-----------0h2--------2--2----2----2---2--2-------2p0h2---------------| 
A--------------------0-------0----0---0--------0h3-------------------0-|
E----------------------------------------------------------------------|

Verse 2
A5
Lucy was a messed up, dressed up waitress with a slightly tarnished heart 
of gold
e--------------------|
B--------------------|
G-------5b-5--2p0----|
D-------5--5--2p0----| 
A-----------------0--|
E--------------------|
She wasn't half bad for a new step mama, as far as step
mama's go             
                       D
e-------------------------|
B-------------------------|
G-------------0---2p0-----|
D---------0h2---0------0--| 
A-------------------------|
E-------------------------|
      D
Daddy knew she was the one as he baked in the sun in a parking lot 
preaching the truth
e---------0--------------------|
B------3-----------------------|
G--0-----------4---------------|
D---------------------2p0------| 
A-------------------------2p0--|
E------------------------------|
Up shot her hand and she cried, oh man "I feel it, yes, 
I feel it, I do"
e-------------------------0-----|
B-------------------------0-----|
G-------------------------------|
D--------------------0h2--------| 
A----------------0h2------------|
E----------------------------0--|
      E
It's been revealed to me down deep in my soul there were two shooters on 
the grassy knoll
         N.C
We never walked on the moon, Elvis ain't dead, you ain't goin' crazy, 
it's all in your head

Let us sing...


Chorus
D                A
It's all interpretation
e---------------------------------------|
B---------------------------------------|
G---------------------------------------|
D------------------------------0--------| 
A--------------------------3-3---3p0-0--|
E---------------------------------------|
    G                        D               
to find the truth you gotta read between the 
A
lines
e------------------------|
B------5--5--5---5-------|
G------7b-7--7b--7p5-----|
D--------------------7\--| 
A------------------------|
E------------------------|
      D                A                 D
Work out your own salvation
e---------------------------------------------------|
B---------------------------------------------------|
G---------------------------------------------------|
D--------------------------------------2p0----------| 
A---------------------------0----0-3p0-----------0--|
E--------------------------------------------0h3----|
      A              G
that narrow path is hard to define
          D                                     
Heaven's more than a place it's a state of mind

  A                           C                            D     
e----5----5----5----5----5----5----5----5----5------------------------|
B----------------------------------------------------------7---7------|
G-7b---7b---7b---7b---7b---7b---7b---7b---7bh--7br-5-7p5---5b--5-bh---|
D--------------------------------------------------------7------------| 
A---------------------------------------------------------------------|
E---------------------------------------------------------------------|
              A
e-----------------------------------------------|
B-7----------------------------------1p0--------|
G-5br----------------------------0h2-----2p0----|
D-----7/0--------------------0h2----------------| 
A--------3p0--0------0----0------------------0--|
E-----------3-----0h3--0h3----------------------|

Verse 3
A5
In his quest for truth, Daddy was moved by the spirit to take up a snake

In a moment of doubt the venom turned out stronger than Daddy's 
faith
e-----------------|
B-----------------|
G-----------------|
D-----0h2p0-------| 
A-----------3p0---|
E-----------------|
     D
I'll never forget in his dying breath the last words that he said
          A                   N.C
"We never walked on the moon, Elvis ain't dead, you ain't goin' crazy, it's 
all in your head"

Let me tell ya...

Chorus

             
State of Mind
                  A5                   C                   D                        
e-------------------------------------------------------3--5----------|
B---------1p0----------------------------------------3b------5br------|
G-----0h2-----2p0---5------7---5-7---7\5---5---5---5-------------7\---|
D-0h2---------------5h7----7---5-7---7\5---5---5---5------------------| 
A-----------------0-----0----0-----0-----3---3---3--------------------|
E---------------------------------------------------------------------|
                A5                               A5   
e--------------------------------------------------------0-----0----
            
Submit corrections

↑ Back to top | Tablatures and chords for acoustic guitar and electric guitar, ukulele, drums are parodies/interpretations of the original songs. You may use it for private study, scholarship, research or language learning purposes only