Home » D » Dewa 19 »

Dewa 19 - Pupus Ukulele

Artists:  A B C D E F G H I J K L M N O P Q R S T U V W X Y Z # 

Pupus Ukulele

(ver. 1) Click to play this song!
Dewa 19
[Intro]
 
A|-2-0-2-|-0---0-|-0-2-0----3--3-|
E|-3---3-|-2-3-2-|-3-----3--0--0-|   x2
C|-2---2-|-2---2-|-4--------0--0-|
G|-0---0-|-0---0-|-0--------0--0-|
 
 
[Verse]
 
A|-0--2--2--0--2--2--0--2--2-2-2-2-|-5--7--7--5--3--5--7--7--5--3--5--7--5--3--3-|
E|-3--3-----2-----2--3-----3-3-3-3-|-0-----0--------2-----2--------2-----------2-|
C|-2--2-----2-----2--4-----4-4-4-4-|-0-----0--------2-----2--------2-----------2-|
G|-0--0-----0-----0--0-----0-0-0-0-|-0-----0--------2-----2--------2-----------2-|
 
 
A|-7--7--7--9--10--9---9--10--9--7-|-7--7--7--9--10---9--7-|------3--2-------|
E|-0-----------10-----10---7--5--3-|-0-----------10--10--0-|------------3--5-|
C|-0------------9------9---7--6--4-|-0------------9---9--0-|-2--4------------|
G|-0------------0------0---7--0--0-|-0------------0---0--2-|-----------------|
 
 
[Chorus]
 
A|-2--5--12--9--10-|-7--9--10--10--7--5--3--0--12--9--5-|
E|-3-----10------7-|-7----------7-----------0---------3-|
C|-2------9------7-|-7----------7-----------0---------2-|
G|-0------0------7-|-0----------7-----------2---------0-|
 
 
A|-2--5--12--9--10--12--9--10--3-|
E|-3-----10------7--10------7--3-|
C|-2------9------7---9------7--3-|
G|-0------0------7---0------7--0-|
 
 
[Bridge]
 
A|-2--0--2--0--2-|-2--0--2--0--2-|-2--0--2--0--5--5--2-|
E|-3-----------3-|-2-----------2-|-3-----------3-----3-|
C|-2-----------2-|-2-----------2-|-4-----------4-----4-|
G|-0-----------0-|-0-----------0-|-0-----------0-----0-|
 
 
A|-7--5--7--5--7-|-5--7--5--7--3-|
E|-0-----------0-|-3--------3--0-|
C|-0-----------0-|-2--------2--0-|
G|-0-----------0-|-2--------0--2-|
 
 
A|-5--7--7--9--10--9---9--10--9--7-|
E|-0-----0------7-----10---7--5--3-|
C|-0-----0------7------9---7--6--4-|
G|--------------7------0---7--0--0-|
 
 
A|-7--7--7--9--10---9--7-|
E|-0-----------10--10--0-|
C|-0------------9---9--0-|
G|-0------------0---0--2-|
 
 
[Chorus]
 
A|-2--5--12--9--10-|-7--9--10--10--7--5--3--0--12--9--5-|
E|-3-----10------7-|-7----------7-----------0---------3-|
C|-2------9------7-|-7----------7-----------0---------2-|
G|-0------0------7-|-0----------7-----------2---------0-|
 
 
A|-2--5--12--9--10--12--9--10--3-|
E|-3-----10------7--10------7--3-|
C|-2------9------7---9------7--3-|
G|-0------0------7---0------7--0-|
 
[Outro]
 
A|-2--0--2--0-----0-----------------------------------------------------2-|
E|-3-----3--2--3--2--3--5--2--3--0--2-----0--2--3--0--0--2--3--0--------3-|
C|-2-----2--2-----2--4-----------------2--0-----------1--------0--2--0--2-|
G|-0-----0--0-----0--0--------------------0-----------2--------2--------0-|
            
Submit corrections

↑ Back to top | Tablatures and chords for acoustic guitar and electric guitar, ukulele, drums are parodies/interpretations of the original songs. You may use it for private study, scholarship, research or language learning purposes only