Home » D » Dewa 19 »

Dewa 19 - Kangen Tabs

Artists:  A B C D E F G H I J K L M N O P Q R S T U V W X Y Z # 

Kangen Tabs

(ver. 1) Click to play this song!
Dewa 19
Intro
e|---------------0--------------0----------------------0-----------------2-0----------|
B|---------3--------3--------3-------3-----------3--------3--------3----------3-------|
G|------2-----2-----------2-------------2-----0-----0-----------2-----2----------2----|
D|---0--------------------------------------------------------------------------------|
A|---------------------2-------------------------------------0------------------------|
E|-----------------------------------------3------------------------------------------|

Verse 1

e|---------------0--------------0----------------------0-----------------2-0----------|
B|---------3--------3--------3-------3-----------3--------3--------3----------3-------|
G|------2-----2-----------2-------------2-----0-----0-----------2-----2----------2----|
D|---0--------------------------------------------------------------------------------|
A|---------------------2-------------------------------------0------------------------|
E|-----------------------------------------3------------------------------------------|


e|---------------0--------------0-----------------------------------------------------|
B|---------3--------3--------3-------3------------------3-----------------3-----------|
G|------2-----2-----------2-------------2-----------0-----------------0---------------|
D|---0------------------------------------------0-----------------2-------------------|
A|---------------------2-------------------------------------3------------------------|
E|-----------------------------------------3------------------------------------------|

e|------------------------------------------------------------------------3-----3-----|
B|----------------3----------------------3-------------------3------------------3-----|
G|----------4----------------0--------0----------------4------------------------0-----|
D|-------4-----4----------0--------0----------------4-----4------------2--------2-----|
A|---2------------------------------------------2-------------------3-----------3-----|
E|---------------------2--------3-----------------------------------------------------|


Verse 2

e|---------------0--------------0----------------------0-----------------2-0----------|
B|---------3--------3--------3-------3-----------3--------3--------3----------3-------|
G|------2-----2-----------2-------------2-----0-----0-----------2-----2----------2----|
D|---0--------------------------------------------------------------------------------|
A|---------------------2-------------------------------------0------------------------|
E|-----------------------------------------3------------------------------------------|


e|---------------0--------------0-----------------------------------------------------|
B|---------3--------3--------3-------3------------------3-----------------3-----------|
G|------2-----2-----------2-------------2-----------0-----------------0---------------|
D|---0------------------------------------------0-----------------2-------------------|
A|---------------------2-------------------------------------3------------------------|
E|-----------------------------------------3------------------------------------------|

e|------------------------------------------------------------------------------------|
B|----------------3----------------------3-------------------3----------------------3-|
G|----------4----------------0--------0----------------4----------------0--------0----|
D|-------4-----4----------0--------0----------------4-----4----------0--------0-------|
A|---2------------------------------------------2-------------------------------------|
E|---------------------2--------3---------------------------------2--------3----------|

e|------------------0-----------------------------------------------------------------|
B|---------------3-----3-----------------------2-------3-------2----------------------|
G|------------0-----------0----------------2-----2---2---2---2---2---2----------------|
D|---------4-----------------4~----------2---2-----2-------2-------2------------------|
A|------2------------------------------0----------------------------------------------|
E|---0--------------------------------------------------------------------------------|


Chorus

  D             F#m
     Semua kata rindumu
     
          G            A          Bm
     Semakin membuatku tak berdaya

         F#m G       Bm    A    
     Menahan rasa ingin jumpa

  D             F#m     G              A
     Percayalah padaku akupun rindu kamu

                Bm      c#m          Em
     Ku akan pulang Melepas semua kerinduan

     A
     Yang terpendam.....


Fill
e|---------------------------------------------------------------------------|
B|---/10~--------------10---10---8---8---7---7-------------------------------|
G|-----------------7-----------------------------9--7---9---9s11~------------|
D|------------/7-------------------------------------------------------------|
A|---------------------------------------------------------------------------|
E|---------------------------------------------------------------------------|

TO Verse 2

TO Chorus

Bridge

  Em        Bm
     Jangan katakan cinta

  Em        Bm    A
     Menambah beban rasa

  Em       F#m             G
     Sudah simpan saja sedihmu itu

        A
     Ku akan datang.....



Solo
e|---------------------------------------------------------------------------|
B|---/10~-----/8--7--8--7----------------------------------------------------|
G|--------------------------7h9--9~----/11--9---/11--9--7--6--7------9b11----|
D|---------------------------------------------------------------------------|
A|---------------------------------------------------------------------------|
E|---------------------------------------------------------------------------|

e|---10--9--7-----------12--10--9---------------------------------17---------|
B|-------------8-------------------10--------15b17r15-15---17b19-----r17-----|
G|---------------------------------------------------------------------------|
D|---------------------------------------------------------------------------|
A|---------------------------------------------------------------------------|
E|---------------------------------------------------------------------------|

e|----------19------------------14--15--17b19~--17b19~----15p14--------------|
B|---17b19------r17--------/17-----------------------------------15~---------|
G|---------------------------------------------------------------------------|
D|---------------------------------------------------------------------------|
A|---------------------------------------------------------------------------|
E|---------------------------------------------------------------------------|

e|-----7h10p7h10p7-------7h10p7h10p7----------9h12p9h12p9---------9h12p9h12p9------|
B|---8-------------8---8-------------8-----10-------------10---10-------------10---|
G|-7-----------------7-----------------7-9-------------------9-------------------9-|
D|---------------------------------------------------------------------------------|
A|---------------------------------------------------------------------------------|
E|---------------------------------------------------------------------------------|

e|-----7h10p7h10p7-------7h10p7h10p7----------9h12p9h12p9---------9h12p9h12p9------|
B|---8-------------8---8-------------8-----10-------------10---10-------------10---|
G|-7-----------------7-----------------7-9-------------------9-------------------9-|
D|---------------------------------------------------------------------------------|
A|---------------------------------------------------------------------------------|
E|---------------------------------------------------------------------------------|

e|-------10h13p10h13p10----------10h13p10h13p10-------------12h15p12h15p12----------12h15p12h15p12-----------|
B|----11----------------11----11----------------11-------13----------------13----13----------------13--------|
G|-10----------------------10----------------------10-12----------------------12----------------------12-----|
D|-----------------------------------------------------------------------------------------------------------|
A|-----------------------------------------------------------------------------------------------------------|
E|-----------------------------------------------------------------------------------------------------------|

e|---17~~~~~-----------------------------------------------------------------|
B|---------------------------------------------------------------------------|
G|---------------------------------------------------------------------------|
D|--------------------------------\pickslide---------------------------------|
A|---------------------------------------------------------------------------|
E|---------------------------------------------------------------------------|            
Submit corrections

↑ Back to top | Tablatures and chords for acoustic guitar and electric guitar, ukulele, drums are parodies/interpretations of the original songs. You may use it for private study, scholarship, research or language learning purposes only