» » »

Devo - I'm A Potato Tabs

Artists:  A B C D E F G H I J K L M N O P Q R S T U V W X Y Z # 

I'm A Potato Tabs

(ver. 1) Click to play this song!
Devo
 Rating:
4.2/5 (5 votes)

 I'm A Potato lessons Tabs too difficult? Try these video lessons and learn fast
 
                -------------------------------------------------------------------------------
-------------------------------------------------------------------------------

Tuning:drop D (low to high = D-A-D-G-B-E) 

Bass and guitar part
e|----------------------|---------------------------------------------------|
B|----------------------|---------------------------------------------------|
G|----------------------|---------------------------------------------------|
D|----------------------|-repeat--------------------------------------------|
A|--------0-3p2-0-----0-|---------------------------------------------------|
E|-0-0-2h3--------2h3---|---------------------------------------------------|

2nd guitar/synth part at (0:09)
e|--|-----8---8--|-----8---8--|-----8---8---|-------------------------------|
B|-8|9-10-------8|9-10-------8|9-10-------10|9-8----------------------------|
G|--|------------|------------|-------------|----7--------------------------|
D|--|------------|------------|-------------|-------------------------------|
A|--|------------|------------|-------------|-------------------------------|
E|--|------------|------------|-------------|-------------------------------|

2nd guitar(?) synth part (cont.)
e|--|-----8-13-8--|-----8-13-8--|-----8-13-8---|-------------------------------|
B|-8|9-10--------8|9-10--------8|9-10--------10|9-8----------------------------|
G|--|-------------|-------------|--------------|----7--------------------------|
D|--|-------------|-------------|--------------|-------------------------------|
A|--|-------------|-------------|--------------|-------------------------------|
E|--|-------------|-------------|--------------|-------------------------------|

Verse
play this phrase right after the 4th beat during the verse
e|---------------|------------------------------------------------------------|
B|---------8-9-10|------------------------------------------------------------|
G|---------------|------------------------------------------------------------|
D|---------------|------------------------------------------------------------|
A|---------------|------------------------------------------------------------|
E|---------------|------------------------------------------------------------|

Pre-chorus breakdown at (0:44)
e|------------|------------|------------|------------|-----------------------|
B|------------|------------|------------|------------|11b-11b-11b-11b-11b-11b|
G|7-----------|6-----------|5-----------|5b-5b-5b-5b-|-----------------------|
D|------------|------------|------------|------------|-----------------------|
A|------------|------------|------------|------------|-----------------------|
E|------------|------------|------------|------------|-----------------------|
  Devolution   Self execu.. No solution  I'm a Potato!




| /  slide up
| \  slide down
| h  hammer-on
| p  pull-off
| b  bend
| ~  vibrato
| +  harmonic
| x  Mute note
===============================================================================
            
Submit corrections


        I'm A Potato lessons Hard to play? Try these video lessons and learn fast I'm A Potato lessons
        
↑ Back to top | Tablatures and chords for acoustic guitar and electric guitar, ukulele, drums are parodies/interpretations of the original songs. You may use it for private study, scholarship, research or language learning purposes only