Home » D » Devo »

Devo - Beautiful World Bass

Artists:  A B C D E F G H I J K L M N O P Q R S T U V W X Y Z # 

Beautiful World Bass

(ver. 1) Click to play this song!
Devo
INTRO
G|---------------------------------------------------------------------------|
D|---------------------------------------------------------------------------|
A|----------------------------------------------------3--3-3--3--3-3--7--7-7-|
E|-3--3-3---3--3-3---5--5-5--5--5-5---1--1-1--1--1-1-------------------------|

G|---------------------------------------------------------------------------|
D|---------------------------------------------------------------------------|
A|-7--7-7---7--7-7-----------------------------------------------------------|
E|--------------------7--7-7---7--7-7--7--7-7---7--7-7---7--7-7---7--7-7-----|

G|---------------------------------------------------------------------------|
D|---------------------------------------------------------------------------|
A|---------------------------------------------------------------------------|
E|-7---7-7----7---7-7----7--7-7---7--7-7-------------------------------------|

"It's a beautiful world we live in,  a sweet romantic place....."
G|---------------------------------------------------------------------------|
D|---------------------------------------------------------------------------|
A|---------------------------------------------------------------------------|
E|-7--7-7--7--7-7--0--0-0---0--0-0---7--7-7---7--7-7---7--7-7---7--7-7--7-7-7|

G|---------------------------------------------------------------------------|
D|---------------------------------------------------------------------------|
A|---------------------------------------------------------------------------|
E|-7--7-7---7--7-7---0--0-0---0--0-0---7--7-7---7--7-7---7--7-7---7--7-7--5---|

G|---------------------------------------------------------------------------|
D|---------------------------------------------------------------------------|
A|----------------------------------7--7-7---7--7-7---7--7-7---7--7-7--7--7-7|
E|-5-5---5---5-5---3--3-3---3--3-3-------------------------------------------|

Repeat the above
Then
"boy and girl with the new clothes on....."
G|---------------------------------------------------------------------------|
D|---------------------------------------------------------------------------|
A|---------------------------------------------------------------------8--8-8|
E|-3--3-3---3--3-3----5--5-5--5--5-5---3--3-3--3--3-3--5--5-5--5--5-5--------|

G|---------------------------------------------------------------------------|
D|---------------------------------------------------------------------------|
A|-8--8-8----3--3-3---3--3-3----7--7-7--7--7-7---7--7-7---7--7-7-------------|
E|---------------------------------------------------------------------------|

Repeat as for "it's a beautiful world we live in" above
and then play out to the B
G|---------------------------------------------------------------------------|
D|---------------------------------------------------------------------------|
A|---------------------------------------------------------------------------|
E|-7--7-7----7--7-7------7--7-7-----7--7-7----7--7-7----7--7-7---------------|            
Submit corrections

↑ Back to top | Tablatures and chords for acoustic guitar and electric guitar, ukulele, drums are parodies/interpretations of the original songs. You may use it for private study, scholarship, research or language learning purposes only