» » »

Devo - Auto Modown Tabs

Artists:  A B C D E F G H I J K L M N O P Q R S T U V W X Y Z # 

Auto Modown Tabs

(ver. 1) Click to play this song!
Devo
 Rating:
4/5 (4 votes)

 Auto Modown lessons Tabs too difficult? Try these video lessons and learn fast
 
                -----------------------------------------------------------------
-----------------------------------------------------------------
Tuning: Standard (E A D G B e)
NOTE: These tabs are purely ear-transcribed, so it may be inaccurate. If you'd like to
improve on it, please tell me.
---
Intro/verse*:
e|-----0h12-12-----|
B|-----------------|
G|-----------------|
D|0h2--------------|
A|0h2--------------|
E|0----------------|
Do that three times, and then:
e|------------|
B|------------|
G|------------|
D|---0--------|
A|0h2--2p0----|
E|--------3---|

“An acidhead goon in a '55 Dodge...”
e|----------------3b-|
B|-------------------|
G|-------------------|
D|55-5-55-5-55-5-----|
A|55-5-55-5-55-5-----|
E|33-3-33-3-33-3-----|
Play that twice, but on the second run through, play the 3rd fret bend at the 7th fret. 
then go back to the first two riffs.
---
As always, listening to the song to get the right idea is key.
---
*-Throughout the song, Bob1 changed the last few notes in the first riff. You'll have to
decipher the twists and turns on your own.
---
Key:
| /  slide up
| \  slide down
| h  hammer-on
| p  pull-off
| ~  vibrato
| +  harmonic
| x  Mute note
            
Submit corrections


        Auto Modown lessons Hard to play? Try these video lessons and learn fast Auto Modown lessons
        
↑ Back to top | Tablatures and chords for acoustic guitar and electric guitar, ukulele, drums are parodies/interpretations of the original songs. You may use it for private study, scholarship, research or language learning purposes only