Home » D » Devildriver »

Devildriver - Bound By The Moon Tabs

Artists:  A B C D E F G H I J K L M N O P Q R S T U V W X Y Z # 

Bound By The Moon Tabs

(ver. 1) Click to play this song!
Devildriver
 Rating:
4/5 (4 votes)
                TUNING: DROP C

KEY:
. Palm Mute
h Hammer ON
p Pull Off
/ Slide
X Deaden String

INTRO
|-----------------------------------------------------------------------|
|-----------------------------------------------------------------------|
|-----------------------------------------------------------------------|
|-----------------------------------------------------------------------|
|---7---7h10p7---12-----5---5h7p5---8-----1p0-2-2-2-3-----3---3h5p3-----|
|-0---0--------0----0-0---0-------0---0-0-----2-2-2-3-0-0---0-------0-5-|
  .   .        .    . .   .       .   . .     . . .   . .   .       .

|-----------------------------------------------------------------------|
|-----------------------------------------------------------------------|
|-----------------------------------------------------------------------|
|-----------------------------------------------------------------------|
|---7---7h10p7---12-----5---5h7p5---8-----1p0-2-2-2-3-----3---3h5p3-----|
|-0---0--------0----0-0---0-------0---0-0-----2-2-2-3-0-0---0-------0-5-|
  .   .        .    . .   .       .   . .     . . .   . .   .       .

|-----------------------------------------------------------------------|
|-----------------------------------------------------------------------|
|-----------------------------------------------------------------------|
|-----------------------------------------------------------------------|
|---7---7h10p7---12/----5---5h7p5---8/----1p0------------3---3h5p3------|
|-0---0--------0------0---0-------0-----0-----2-2-2-3--0---0-------0-5--|
  .   .        .      .   .       .     .              .   .       .

|----------------------------------------------------------------------|
|----------------------------------------------------------------------|
|----------------------------------------------------------------------|
|----------------------------------------------------------------------|
|---7---7h10p7---12/----5---5h7p5---8/----1p0------------3---3h5p3-----|
|-0---0--------0------0---0-------0-----0-----2-2-2-3--0---0-------0-0-|
  .   .        .      .   .       .     .              .   .       . .

VERSE
|---------------------------------|
|---------------------------------|
|---------------------------------|
|---------------------------------|
|---------------------------------|
|-5-5-5-5-5-5-5-5-5-5-5-5-5-5-5-5-|
|                                 |
|---------------------------------|
|---------------------------------|
|---------------------------------|
|---------------------------------|
|-1-1-1-1-1-1-1-1-1-1-1-1-1-1-1-1-|
|---------------------------------|

|--------------------------------------------------------------|
|--------------------------------------------------------------|
|--------------------------------------------------------------|
|--------------------------------------------------------------|
|-------5---4---5---------------7h8---8------------------------|
|-0-2-3---0---0---0-0-0-0-0-0-0-----0---0-10-0-8-0-0-0-0-0-0-0-|
  . . .   .   .   . . . . . . .     .   .    .   . . . . . . .

|----------------------------------------------------------------|
|----------------------------------------------------------------|
|----------------------------------------------------------------|
|-------7----------------------------------------------7---8---7-|
|-----------8---7---------------------8---7---8------------------|
|-5h7-0---0---0---0-0-0-0-0-0-0-7h8-0---0---0---0-8-10---0---0---|
      .   .   .   . . . . . . .     .   .   .   . . .    .   .

PRE-CHORUS
|-----------------------------------------------------------------------|
|---------------------------------------------10------------------------|
|---------------------------------------------X---10--------------------|
|-------7---5---7----9/10--10--5---3----------7---X-----3-3-3-3-7-7-7-7-|
|-0-0-0-5---3---5----7/8---8---3---1--------------8-----3-3-3-3-7-7-7-7-|
|-0-0-0---0---0----------0---0---0------5h7-0---0---0-0-3-3-3-3-7-7-7-7-|
  . . .   .   .          .   .   .          .   .   . .

CHORUS
|------------------------------------------------|
|------------------------------------------------|
|-7--7--7--7--7--7--7--7--3--3--3--3--5--5--5--5-|
|-7--7--7--7--7--7--7--7--3--3--3--3--5--5--5--5-|
|-5--5--5--5--5--5--5--5--1--1--1--1--3--3--3--3-|
|------------------------------------------------|
|                                                |
|------------------------------------------------|
|------------------------------------------------|
|----------------9-----10------------9-----9--10-|
|-0--12-10-12-0-----0-------0--10-12----10-------|
|------------------------------------------------|
|------------------------------------------------|
  ..............................................


|------------------------------------------------|
|------------------------------------------------|
|-------------------------3--3--3--3--5--5--5--5-|
|-0--0--0--0--0--0--0--0--3--3--3--3--5--5--5--5-|
|-0--0--0--0--0--0--0--0--1--1--1--1--3--3--3--3-|
|-0--0--0--0--0--0--0--0-------------------------|
|                                                |
|------------------------------------------------|
|------------------------------------------------|
|----------------9-----10------------14-------12-|
|-0--12-10-12-0-----0-------0--10-12----0--10----|
|------------------------------------------------|
|------------------------------------------------|
  ..............................................


|------------------------------------------------|
|------------------------------------------------|
|-7--7--7--7--7--7--7--7--3--3--3--3--5--5--5--5-|
|-7--7--7--7--7--7--7--7--3--3--3--3--5--5--5--5-|
|-5--5--5--5--5--5--5--5--1--1--1--1--3--3--3--3-|
|------------------------------------------------|
|                                                |
|------------------------------------------------|
|------------------------------------------------|
|----------------9-----10------------9-----9--10-|
|-0--12-10-12-0-----0-------0--10-12----10-------|
|------------------------------------------------|
|------------------------------------------------|
|                                                |
|------------------------------------------------|
|------------------------------------------------|
|----------------12----14------------12----12-14-|
|-0--15-14-15-0-----0-------0--14-15----14-------|
|------------------------------------------------|
|------------------------------------------------|


|------------------------------------------------|
|------------------------------------------------|
|-------------------------3--3--3--3--5--5--5--5-|
|-0--0--0--0--0--0--0--0--3--3--3--3--5--5--5--5-|
|-0--0--0--0--0--0--0--0--1--1--1--1--3--3--3--3-|
|-0--0--0--0--0--0--0--0-------------------------|
|                                                |
|------------------------------------------------|
|------------------------------------------------|
|----------------9-----10------------14-------12-|
|-0--12-10-12-0-----0-------0--10-12----0--10----|
|------------------------------------------------|
|------------------------------------------------|
|                                                |
|------------------------------------------------|
|------------------------------------------------|
|----------------12----14------------17-------15-|
|-0--15-14-15-0-----0-------0--14-15----0--14----|
|------------------------------------------------|
|------------------------------------------------|


[VERSE]

[PRE-CHORUS]

[CHORUS]

|----------------------------------|
|----------------------------------|
|----------------------------------|
|-0--------------------------------|
|-0----------------------------12//|
|-0----------------------------12//|
|                                  |
|----------------------------------|
|-10-------------------------------|
|----------------------------------|
|----------------------------------|
|----------------------------------|
|----------------------------------|

SOLO RIFF
|---------------------------------------------------------------|
|---------------------------------------------------------------|
|---------------------------------------------------------------|
|-------3-----------------------3---------------3---------------|
|-5p4-------5---4-----------4-5---5---------4-5---5-------------|
|-----0---0---0---0-0-0-0-0---------0-0-0-0---------0-0-0-0-0-0-|
      .   .   .   . . . . .         . . . .         . . . . . .

|---------------------------------------------------------------|
|---------------------------------------------------------------|
|---------------------------------------------------------------|
|-------3-----------------------------------------------5-----3-|
|-5p4-------4---5-----------------------------------------------|
|-----0---0---0---0-0-0-0-0-0-2-3-2-0-0-0-0-0-2-3-2-0-0---0-0---|
      .   .   .   . . . . .         . . . .         . .   . .

|---------------------------------------------------------------|
|---------------------------------------------------------------|
|---------------------------------------------------------------|
|-------3-----------------------3---------------3---------------|
|-5p4-------5---4-----------4-5---5---------4-5---5-------------|
|-----0---0---0---0-0-0-0-0---------0-0-0-0---------0-0-0-0-0-0-|
|     .   .   .   . . . . .         . . . .         . . . . . . |
|---------------------------------------------------------------|
|---------------------------------------------------------------|
|-------2-----------------------2---------------2---------------|
|-3p2-------3---2-----------2-3---3---------2-3---3-------------|
|---------------------------------------------------------------|
|-----0---0---0---0-0-0-0-0---------0-0-0-0---------0-0-0-0-0-0-|
      .   .   .   . . . . .         . . . .         . . . . . .

|---------------------------------------------------------------|
|---------------------------------------------------------------|
|---------------------------------------------------------------|
|-------3-----------------------------------------------5-----3-|
|-5p4-------4---5-----------------------------------------------|
|-----0---0---0---0-0-0-0-0-0-2-3-2-0-0-0-0-0-2-3-2-0-0---0-0---|
|     .   .   .   . . . . .         . . . .         . .   . .   |
|---------------------------------------------------------------|
|-------------------------------------------------------8-----6-|
|-------2-----------------------3-2-------------3-2-------------|
|-3p2-------2---3-----------3-5-------------3-5-----------------|
|---------------------------------------------------------------|
|-----0---0---0---0-0-0-0-0---------0-0-0-0---------0-0---0-0---|
      .   .   .   . . . . .         . . . .         . .   . .  

FINAL CHORUS
|-------------------------------------------------------------------|
|-------------------------------------------------------------------|
|-------------------------------------------------------------------|
|-------------------------------------------------------------------|
|-----5-8-5-----------5--------7--------5-8-5-------5---5---3---3---|
|-0-7-------7-0-0-0-8---8-0-10---10-0-7-------7-0-0---8---8---0---0-|
  . .       . . . . .   . . .    .  . .       . . .   .   .   .   .

|-------------------------------------------------|
|-------------------------------------------------|
|-------------------------------------------------|
|-------------------------------------------------|
|-------5--8--5-----------------5-----------7-----|
|-0--7-----------7--0--0--0--8-----8--0--10----10-|
| .  .           .  .  .  .  .     .  .  .     .  |
|-------------------------------------------------|
|-------------------------------------------------|
|----------------9-----10-------------9-----9--10-|
|-0--12-10-12-0-----0--------0--10-12----10-------|
|-------------------------------------------------|
|-------------------------------------------------|
  ...............................................


|-------------------------------------------------|
|-------------------------------------------------|
|-------------------------------------------------|
|-------------------------------------------------|
|-------5--8--5-----------------5-----------7-----|
|-0--7-----------7--0--0--0--8-----8--0--10----10-|
| .  .           .  .  .  .  .     .  .  .     .  |
|-------------------------------------------------|
|-------------------------------------------------|
|----------------9-----10-------------14-------12-|
|-0--12-10-12-0-----0--------0--10-12----0--10----|
|-------------------------------------------------|
|-------------------------------------------------|
  ...............................................


|------------------------------------------------|
|------------------------------------------------|
|-7--7--7--7--7--7--7--7--3--3--3--3--5--5--5--5-|
|-7--7--7--7--7--7--7--7--3--3--3--3--5--5--5--5-|
|-5--5--5--5--5--5--5--5--1--1--1--1--3--3--3--3-|
|------------------------------------------------|
|                                                |
|------------------------------------------------|
|------------------------------------------------|
|----------------9-----10------------9-----9--10-|
|-0--12-10-12-0-----0-------0--10-12----10-------|
|------------------------------------------------|
|------------------------------------------------|
|                                                |
|------------------------------------------------|
|------------------------------------------------|
|----------------12----14------------12----12-14-|
|-0--15-14-15-0-----0-------0--14-15----14-------|
|------------------------------------------------|
|------------------------------------------------|


|------------------------------------------------|
|------------------------------------------------|
|------------------------------------------------|
|-0--0--0--0--0--0--0--0-------------------------|
|-0--0--0--0--0--0--0--0-------------------------|
|-0--0--0--0--0--0--0--0-------------------------|
|                                                |
|------------------------------------------------|
|------------------------------------------------|
|----------------9-----10------------14-------12-|
|-0--12-10-12-0-----0-------0--10-12----0--10----|
|------------------------------------------------|
|------------------------------------------------|
|                                                |
|------------------------------------------------|
|------------------------------------------------|
|----------------12----14------------17-------15-|
|-0--15-14-15-0-----0-------0--14-15----0--14----|
|------------------------------------------------|
|------------------------------------------------|

EXIT
|---------------------------------------------------------------|
|---------------------------------------------------------------|
|---------------------------------------------------------------|
|-------3-----------------------3---------------3---------------|
|-5p4-------5---4-----------4-5---5---------4-5---5-------------|
|-----0---0---0---0-0-0-0-0---------0-0-0-0---------0-0-0-0-0-0-|
      .   .   .   . . . . .         . . . .         . . . . . .

|---------------------------------------------------------------|
|---------------------------------------------------------------|
|---------------------------------------------------------------|
|-------3-----------------------------------------------5-----3-|
|-5p4-------4---5-----------------------------------------------|
|-----0---0---0---0-0-0-0-0-0-2-3-2-0-0-0-0-0-2-3-2-0-0---0-0---|
      .   .   .   . . . . .         . . . .         . .   . .

|---------------------------------------------------------------|
|---------------------------------------------------------------|
|---------------------------------------------------------------|
|-------3-----------------------3---------------3---------------|
|-5p4-------5---4-----------4-5---5---------4-5---5-------------|
|-----0---0---0---0-0-0-0-0---------0-0-0-0---------0-0-0-0-0-0-|
|     .   .   .   . . . . .         . . . .         . . . . . . |
|---------------------------------------------------------------|
|---------------------------------------------------------------|
|-------2-----------------------2---------------2---------------|
|-3p2-------3---2-----------2-3---3---------2-3---3-------------|
|---------------------------------------------------------------|
|-----0---0---0---0-0-0-0-0---------0-0-0-0---------0-0-0-0-0-0-|
      .   .   .   . . . . .         . . . .         . . . . . .

|---------------------------------------------------------------|
|---------------------------------------------------------------|
|---------------------------------------------------------------|
|-------3-----------------------------------------------5-----3-|
|-5p4-------4---5-----------------------------------------------|
|-----0---0---0---0-0-0-0-0-0-2-3-2-0-0-0-0-0-2-3-2-0-0---0-0---|
|     .   .   .   . . . . .         . . . .         . .   . .   |
|---------------------------------------------------------------|
|-------------------------------------------------------8-----6-|
|-------2-----------------------3-2-------------3-2-------------|
|-3p2-------2---3-----------3-5-------------3-5-----------------|
|---------------------------------------------------------------|
|-----0---0---0---0-0-0-0-0---------0-0-0-0---------0-0---0-0---|
      .   .   .   . . . . .         . . . .         . .   . .  


|---------------------------------------------------------------|
|---------------------------------------------------------------|
|---------------------------------------------------------------|
|-------3-----------------------3---------------3---------------|
|-5p4-------5---4-----------4-5---5---------4-5---5-------------|
|-----0---0---0---0-0-0-0-0---------0-0-0-0---------0-0-0-0-0-0-|
|     .   .   .   . . . . .         . . . .         . . . . . . |
|---------------------------------------------------------------|
|---------------------------------------------------------------|
|-------2-----------------------2---------------2---------------|
|-3p2-------3---2-----------2-3---3---------2-3---3-------------|
|---------------------------------------------------------------|
|-----0---0---0---0-0-0-0-0---------0-0-0-0---------0-0-0-0-0-0-|
|     .   .   .   . . . . .         . . . .         . . . . . . |
|------------------------------------------------------------------|
|---------------------------------11111111111111111010101010101010-|
|-7-7-7-7-7-7-7-7-7-7-7-7-10101010---------------------------------|
|------------------------------------------------------------------|
|------------------------------------------------------------------|
|------------------------------------------------------------------|


|---------------------------------------------------------------|
|---------------------------------------------------------------|
|---------------------------------------------------------------|
|-------3-----------------------3---------------3---------------|
|-5p4-------5---4-----------4-5---5---------4-5---5-------------|
|-----0---0---0---0-0-0-0-0---------0-0-0-0---------0-0-0-0-0-0-|
|     .   .   .   . . . . .         . . . .         . . . . . . |
|---------------------------------------------------------------|
|---------------------------------------------------------------|
|-------2-----------------------2---------------2---------------|
|-3p2-------3---2-----------2-3---3---------2-3---3-------------|
|---------------------------------------------------------------|
|-----0---0---0---0-0-0-0-0---------0-0-0-0---------0-0-0-0-0-0-|
|     .   .   .   . . . . .         . . . .         . . . . . . |
|------------------------------------------------------------------|
|-111111111111111111111111111111118-8-8-8-8-8-8-8-1111111111111111-|
|------------------------------------------------------------------|
|------------------------------------------------------------------|
|------------------------------------------------------------------|
|------------------------------------------------------------------|
            
Submit corrections

↑ Back to top | Tablatures and chords for acoustic guitar and electric guitar, ukulele, drums are parodies/interpretations of the original songs. You may use it for private study, scholarship, research or language learning purposes only