» » »

Desperation Band - On The Throne Tabs

Artists:  A B C D E F G H I J K L M N O P Q R S T U V W X Y Z # 

On The Throne Tabs

(ver. 1) Click to play this song!
Desperation Band
 Rating:
2.3/5 (27 votes)

 On The Throne  lessons Tabs too difficult? Try these video lessons and learn fast
 
                Intro:

E|---------------------------------------|
B|-----5---/-----12--/------10--/---8----|
G|---------------------------------------|
D|--5-----/--12----/----10---/---9-------|
A|---------------------------------------|
E|---------------------------------------|

Verse:

E|---------------------------------------------|
B|------------------------1p0--1p0---1p0--1p0--|
G|--2p0--2p0--2p0--2p0----2p0--2p0---2p0--2p0--|
D|---------------------------------------------|
A|---------------------------------------------|
E|---------------------------------------------|

Pre-chorus:

E|--------------|
B|--12--13--15--|
G|--0---0---0---|
D|--------------|
A|--------------|
E|--------------|

Chorus 1:

E|--10----12----10----14--|
B|------------------------|
G|------------------------|
D|------------------------|
A|------------------------|
E|------------------------|

Chorus 2: Each of these chords are play as 16th notes.

E|------------------------|
B|--8----10----12----10---|
G|------------------------|
D|--5----7-----9-----7----|
A|------------------------|
E|------------------------|

Bridge: Again, 16th notes for each chord

E|------------------------|
B|--10----12----8----7----|
G|------------------------|
D|--7-----9-----5----4----|
A|------------------------|
E|------------------------|

Quiet Bridge:  Either tremolo pick these, or play them as 16th notes with some delay.

E|------------------|
B|--10--12--8--7----|
G|------------------|
D|------------------|
A|------------------|
E|------------------|            
Submit corrections


        On The Throne  lessons Hard to play? Try these video lessons and learn fast On The Throne  lessons
        
↑ Back to top | Tablatures and chords for acoustic guitar and electric guitar, ukulele, drums are parodies/interpretations of the original songs. You may use it for private study, scholarship, research or language learning purposes only