Home » D » Depapepe »

Depapepe - The Weathercock Tabs

Artists:  A B C D E F G H I J K L M N O P Q R S T U V W X Y Z # 

The Weathercock Tabs

(ver. 1) Click to play this song!
Depapepe
(Intro)
-----------------------------------------------------------------------------
                             The Weathercock
                                Depapepe
-----------------------------------------------------------------------------


Tuning: Standard

This is my first tab :D
Put a capo on the second fret

Have fun :)

e|--3-------3---3-------3--2-----2---3---3------------3---------------3----|e
B|--------0-----1-----1----------3---0---0---------0--------------0--------|B
G|------0----------0----------2-----------------0-------------0------------|G
D|-------------------------0-----------------------------------------------|D
A|--------------0----------------------------------------------------------|A
E|--0----------------------------------------3-------------2---------------|E


e|--3-------3---3-------3--2-----2---3---3------|e
B|--------0-----1-----1----------3---0---0------|B
G|------0----------0----------2-----------------|G
D|-------------------------0--------------------|D
A|--------------0-------------------------------|A
E|--0----------------------------------------3--|E

Thats pretty much it
            
Submit corrections

↑ Back to top | Tablatures and chords for acoustic guitar and electric guitar, ukulele, drums are parodies/interpretations of the original songs. You may use it for private study, scholarship, research or language learning purposes only