Home » D » Demon Hunter »

Demon Hunter - Jesus Wept Tabs

Artists:  A B C D E F G H I J K L M N O P Q R S T U V W X Y Z # 

Jesus Wept Tabs

(ver. 1) Click to play this song!
Demon Hunter
[Intro]
C |---------------------------------|---------------------------------|
G |---------------------------------|---------------------------------|
D#|-----------------------------3---|-3-----3-------------------------|
A#|-1-1-1-1-1-1-1h2-1-1-1-1-1-1-1h2-|-1-1-1-1-1-1-1h2-1-1-1-1-0-0-0-0-|
F |-1-----1---------------------1-1-|-1-----1-------------------------|
A#|-1-----1---------------------1-1-|-1-----1-----------------x\------|

C |---------------------------------|---------------------------------|
G |---------------------------------|---------------------------------|
D#|---------------------------------|---------------------------------|
A#|-1-1-1-1-1-1-1h2-1-1-1-1-1-1-1h2-|-1-1-1-1-1-1-1h2-1-1-1-0-0-0-0-0-|
F |-1~------------------------------|-------------1-1-1---------------|
A#|-1~------------------------------|-------------1-1-1---------------|

C |---------------------------------|---------------------------------|
G |---------------------------------|---------------------------------|
D#|---------------------------------|---------------------------------|
A#|-1-----1---------1-----1---------|-1-----1---------1---------------|
F |-1-----1---------1-----1---------|-1-----1---------1---------------|
A#|-1-1-1-1-1-1-1h2-1-1-1-1-1-1-1h2-|-1-1-1-1-1-1-1h2-1-1-1-0-0-0-0-0-|

C |---------------------------------|---------------------------------|
G |---------------------------------|---------------------------------|
D#|---------------------------------|---------------------------------|
A#|-1-1-1-1-1-1-1h2-1-1-1-1-1-1-1h2-|-1-1-1-1-1-1-1h2-1-1-1-0-0-0-0-0-|
F |-1~------------------------------|---------------------------------|
A#|-1~------------------------------|---------------------------------|

[Verse 1]
C |---------|/9-9-9-9-9-9-9-9------|
G |---------|----------------------|
D#|---------|----------------------|
A#|-4~------|-----------------pr\--|
F |-4~------|-----------------pr\--|
A#|-4~------|----------------------|

C |---------------------------------|---------------------------------|
G |---------------------------------|---------------------------------|
D#|---------------------------------|---------------------------------|
A#|-1-1-1-1-1-1-1h2-1-1-1-1-1-1-1h2-|-1-1-1-1-1-1-1h2-1-1-1-0-0-0-0-0-|
F |-1~------------------------------|---------------------------------|
A#|-1~------------------------------|---------------------------------|

C |---------|/9-9-9-9-9-9-9-9------|
G |---------|----------------------|
D#|---------|----------------------|
A#|-4~------|-----------------pr\--|
F |-4~------|-----------------pr\--|
A#|-4~------|----------------------|

C |---------------------------------|---------------------------------|
G |---------------------------------|---------------------------------|
D#|---------------------------------|---------------------------------|
A#|-1-1-1-1-1-1-1h2-1-1-1-1-1-1-1h2-|-1-1-1-1-1-1-1h2-1-1-1-0-0-=-0-=-|
F |-1~------------------------------|---------------------------------|
A#|-1~------------------------------|---------------------------------|

[Pre-chorus]
C |---------------------------------|---------------------------------|
G |---------------------------------|---------------------------------|
D#|---------------------------------|---------------------------------|
A#|-1-1-1-1-1-1-1h2-1-1-1-1-1-1-1h2-|-1-1-1-1-1-1-1h2-0-0-0-0-0-0-0-0-|
F |-1~------------------------------|---------------------------------|
A#|-1~------------------------------|---------------------------------|

[Chorus]
C |-------------------------------|-------------------------------|
G |-------------------------------|-------------------------------|
D#|-------------------------------|-------------------------------|
A#|-1--1--1-----------------------|-1--1--1-----------------------|
F |-1--1--1-1-=-------4-------1---|-1--1--1-1-=-------------------|
A#|-1--1--1-1-=---1h4---4-0h4-----|-1--1--1-1-=---1h4-6-1-1/6-4---|

C |-------------------------------|---------------------|
G |-------------------------------|---------------------|
D#|-------------------------------|---------------------|
A#|-1--1--1-----------------------|-1--1--1-------4-=---|
F |-1--1--1-1-=-------4-------1---|-1--1--1-1-=---4-=---|
A#|-1--1--1-1-=---1h4---4-0h4-----|-1--1--1-1-=---4-=---|

[Instrumental]
C |---------------------------------|---------------------------------|
G |---------------------------------|---------------------------------|
D#|---------------------------------|---------------------------------|
A#|-1-1-1-1-1-1-1h2-1-1-1-1-1-1-1h2-|-1-1-1-1-1-1-1h2-1-1-1-0-0-0-0-0-|
F |-1~------------------------------|---------------------------------|
A#|-1~------------------------------|---------------------------------|

[Verse 2]
C |---------|/9-9-9-9-9-9-9-9------|
G |---------|----------------------|
D#|---------|----------------------|
A#|-4~------|-----------------pr\--|
F |-4~------|-----------------pr\--|
A#|-4~------|----------------------|

C |---------------------------------|---------------------------------|
G |---------------------------------|---------------------------------|
D#|---------------------------------|---------------------------------|
A#|-1-1-1-1-1-1-1h2-1-1-1-1-1-1-1h2-|-1-1-1-1-1-1-1h2-1-1-1-0-0-0-0-0-|
F |-1~------------------------------|---------------------------------|
A#|-1~------------------------------|---------------------------------|

C |---------|/9-9-9-9-9-9-9-9------|
G |---------|----------------------|
D#|---------|----------------------|
A#|-4~------|-----------------pr\--|
F |-4~------|-----------------pr\--|
A#|-4~------|----------------------|

C |---------------------------------|---------------------------------|
G |---------------------------------|---------------------------------|
D#|---------------------------------|---------------------------------|
A#|-1-1-1-1-1-1-1h2-1-1-1-1-1-1-1h2-|-1-1-1-1-1-1-1h2-1-1-1-0-0-=-0-=-|
F |-1~------------------------------|---------------------------------|
A#|-1~------------------------------|---------------------------------|

[Pre-chorus]
C |---------------------------------|---------------------------------|
G |---------------------------------|---------------------------------|
D#|---------------------------------|---------------------------------|
A#|-1-1-1-1-1-1-1h2-1-1-1-1-1-1-1h2-|-1-1-1-1-1-1-1h2-0-0-0-0-0-0-0-0-|
F |-1~------------------------------|---------------------------------|
A#|-1~------------------------------|---------------------------------|

[Chorus]
C |-------------------------------|-------------------------------|
G |-------------------------------|-------------------------------|
D#|-------------------------------|-------------------------------|
A#|-1--1--1-----------------------|-1--1--1-----------------------|
F |-1--1--1-1-=-------4-------1---|-1--1--1-1-=-------------------|
A#|-1--1--1-1-=---1h4---4-0h4-----|-1--1--1-1-=---1h4-6-1-1/6-4---|

C |-------------------------------|---------------------------|
G |-------------------------------|---------------------------|
D#|-------------------------------|---------------------------|
A#|-1--1--1-----------------------|-1--1--1-------------------|
F |-1--1--1-1-=-------4-------1---|-1--1--1-1-=---------------|
A#|-1--1--1-1-=---1h4---4-0h4-----|-1--1--1-1-=---4v*--2b3v*--|

C |-------------------------------|-------------------------------|
G |-------------------------------|-------------------------------|
D#|-------------------------------|-------------------------------|
A#|-1--1--1-----------------------|-1--1--1-----------------------|
F |-1--1--1-1-=-------4-------1---|-1--1--1-1-=-------------------|
A#|-1--1--1-1-=---1h4---4-0h4-----|-1--1--1-1-=---1h4-6-1-1/6-4---|

C |-------------------------------|---------------------|
G |-------------------------------|---------------------|
D#|-------------------------------|---------------------|
A#|-1--1--1-----------------------|-1--1--1-------4-=---|
F |-1--1--1-1-=-------4-------1---|-1--1--1-1-=---4-=---|
A#|-1--1--1-1-=---1h4---4-0h4-----|-1--1--1-1-=---4-=---|

[Instrumental]
C |---------------------------------|---------------------------------|
G |---------------------------------|---------------------------------|
D#|---------------------------------|---------------------------------|
A#|-1-1-1-1-1-1-1h2-1-1-1-1-1-1-1h2-|-1-1-1-1-1-1-1h2-1-1-1-0-0-0-0-0-|
F |-1~------------------------------|---------------------------------|
A#|-1~------------------------------|---------------------------------|

C |---------------------------------|---------------------------------|
G |---------------------------------|---------------------------------|
D#|---------------------------------|---------------------------------|
A#|-1-1-1-1-1-1-1h2-1-1-1-1-1-1-1h2-|-1-1-1-1-1-1-1h2-1-1-1-0-0-0-0-0-|
F |-1~------------------------------|---------------------------------|
A#|-1~------------------------------|---------------------------------|

C |---------------------------------|---------------------------------|
G |---------------------------------|---------------------------------|
D#|---------------------------------|---------------------------------|
A#|-1-1-1-1-1-1-1h2-1-1-1-1-1-1-1h2-|-1-1-1-1-1-1-1h2-1-1-1-0-0-0-0-0-|
F |-1-----1-------------------------|-1-----1-----1-------------------|
A#|-1-----1-------------------------|-1-----1-----1-------------------|

C |---------------------------------|-------------------------------|
G |---------------------------------|-------------------------------|
D#|---------------------------------|-------------------------------|
A#|-1-1-1-1-1-1-1h2-1-1-1-1-1-1-1h2-|-1-1-1-1-1-1-1h2-1-1-1-1-0-=---|
F |-1-1---1-----1-------------------|-1-----1-----1-----1-----0-----|
A#|-1-1---1-----1-------------------|-1-----1-----1-----1-----0-----|

[Solo]
C |---------|---------|---------|---------|---------|
G |---------|---------|---------|---------|---------|
D#|---------|---------|---------|---------|---------|
A#|-4~------|-1~------|-4~------|-1~------|-4~------|
F |-4~------|-1~------|-4~------|-1~------|-4~------|
A#|-4~------|-1~------|-4~------|-1~------|-4~------|

[Chorus]
C |-------------------------------|-------------------------------|
G |-------------------------------|-------------------------------|
D#|-------------------------------|-------------------------------|
A#|-1--1--1-----------------------|-1--1--1-----------------------|
F |-1--1--1-1-=-------4-------1---|-1--1--1-1-=-------------------|
A#|-1--1--1-1-=---1h4---4-0h4-----|-1--1--1-1-=---1h4-6-1-1/6-4---|

C |-------------------------------|---------------------------|
G |-------------------------------|---------------------------|
D#|-------------------------------|---------------------------|
A#|-1--1--1-----------------------|-1--1--1-------------------|
F |-1--1--1-1-=-------4-------1---|-1--1--1-1-=---------------|
A#|-1--1--1-1-=---1h4---4-0h4-----|-1--1--1-1-=---4v*--2b3v*--|

C |-------------------------------|-------------------------------|
G |-------------------------------|-------------------------------|
D#|-------------------------------|-------------------------------|
A#|-1--1--1-----------------------|-1--1--1-----------------------|
F |-1--1--1-1-=-------4-------1---|-1--1--1-1-=-------------------|
A#|-1--1--1-1-=---1h4---4-0h4-----|-1--1--1-1-=---1h4-6-1-1/6-4---|

C |-------------------------------|---------------------|
G |-------------------------------|---------------------|
D#|-------------------------------|---------------------|
A#|-1--1--1-----------------------|-1--1--1-------4-=---|
F |-1--1--1-1-=-------4-------1---|-1--1--1-1-=---4-=---|
A#|-1--1--1-1-=---1h4---4-0h4-----|-1--1--1-1-=---4-=---|

C |------------|
G |------------|
D#|------------|
A#|-1-=--1-=---|
F |-1-=--1-=---|
A#|-1-=--1-=---|            
Submit corrections

↑ Back to top | Tablatures and chords for acoustic guitar and electric guitar, ukulele, drums are parodies/interpretations of the original songs. You may use it for private study, scholarship, research or language learning purposes only