Home » D » Demon Hunter »

Demon Hunter - Cross To Bear Tabs

Artists:  A B C D E F G H I J K L M N O P Q R S T U V W X Y Z # 

Cross To Bear Tabs

(ver. 1) Click to play this song!
Demon Hunter
[Intro 1](Both Guitars)

C#|-------------------------------------------------------------------------------------------|
G#|-------------------------------------------------------------------------------------------|
E |-------------------------------------------------------------------------------------------|
B |-------------------------------------------X5------------------------------6-5-3-----------|
F#|--------------------------------------------------------------------------------6-5-3------|
B |--3p000003p000003p000003p000005p0006p000------3p000003p000003p000003p00000-----------6-5---|
        ****   ****   ****   ****   **   **         ****   ****   ****   ****
[Intro 2] (Guitar 1)
C#|--------------------------------------------|
G#|--------------------------------------------|
E |--------------------------------------------|(X2)  
B |--------------------6666--------------------|
F#|--------------------5555-5b5b5b5b5b5b5b5b---|
B |-0000---0000---0000-------------------------|
    ****   ****   ****
(Guitar 2)
C#|--------------------------------------------|
G#|--------------------------------------------|
E |--------------------------------------------|(X2)
B |-------------------------6b6b6b6b6b6b6b6b---|
F#|--------------------------------------------|
B |-0000---0000---0000-------------------------|
    ****   ****   ****
[Verse](Both guitars)

C#|------------------------------------------------------------------------------|
G#|------------------------------------------------------------------------------|
E |------------------------------------------------------------------------------|
B |------------------------------------------------------------------------------|
F#|------------------------------------------------------------------------------|
B |--0000---00--00--00--0000---00-6b-00-6b----0000---00--00--00--0000------00-6b-|
     ****   **  **  **  ****   **    **       ****   **  **  **  ****      ** 
C#|-----------------------------------------|
G#|-----------------------------------------|
E |-----------------------------------------|  (X2)
B |-----------------------------------------|
F#|-----------------------------------------|
B |--0000---00--00--00--0000---00-6b-00-6b--|
     ****   **  **  **  ****   **    **
(Guitar 1)
C#|-----------------------------------------|
G#|-----------------------------------------|
E |-----------------------------------------|
B |-----------------------------------------|
F#|-----------------------------------------|
B |--0000---00--00--00--0000---00-6b-00-6b--|
     ****   **  **  **  ****   **    **
(Guitar 2)
C#|--------------------------------------------------------------------------------------|
G#|--------------------------------------------------------------------------------------|
E |--------------------------------------------------------------------------------------|
B |--------------------------------------------------------------------------------------|
F#|--------------------------------------------------------------------------------------|
B |--12-12-0-0-0-0-12-12-0-0-15-15-0-0-13-13-0-0-10-10-12-12-0-0-12-12-15-15-13-13-10-10-|
      *  * * * * *  *  * * *  *  * * *  *  * * *  *  *  *  * * *  *  *  *  *  *  *  *  *  
(Guitar 1)
C#|-----------------------------------------|
G#|-----------------------------------------|
E |-----------------------------------------|
B |-----------------------------------------|
F#|-----------------------------------------|
B |--0000---00--00--00--0000---00-6b-00-6b--|
     ****   **  **  **  ****   **    **

(Guitar 2)
C#|------------------------------------------------------------------------------|
G#|------------------------------------------------------------------------------|             
E |------------------------------------------------------------------------------|
B |------------------------------------------------------------------------------|
F#|------------------------------------------------------------------------------|
B |--12-12-0-0-0-0-12-12-0-0-15-15-0-0-13-13-0-0-10-10-12-12-0-0-10-10-13-13-12~~|
      *  * * * * *  *  * * *  *  * * *  *  * * *  *  *  *  * * *  *  *  *  * 
(Guitar 1)
C#|-----------------------------------------|
G#|-----------------------------------------|
E |-----------------------------------------|
B |-----------------------------------------|
F#|-----------------------------------------|
B |--0000---00--00--00--0000---00-6b-00-6b--|
     ****   **  **  **  ****   **    **
(Guitar 2)
C#|--------------------------------------------------------------------------------------|
G#|--------------------------------------------------------------------------------------|
E |--------------------------------------------------------------------------------------|
B |--------------------------------------------------------------------------------------|
F#|--------------------------------------------------------------------------------------|
B |--12-12-0-0-0-0-12-12-0-0-15-15-0-0-13-13-0-0-10-10-12-12-0-0-12-12-15-15-13-13-10-10-|
      *  * * * * *  *  * * *  *  * * *  *  * * *  *  *  *  * * *  *  *  *  *  *  *  *  *  
(Guitar 1)
C#|-----------------------------------------|
G#|-----------------------------------------|
E |-----------------------------------------|
B |-----------------------------------------|
F#|-----------------------------------------|
B |--0000---00--00--00--0000---00-6b-00-6b--|
     ****   **  **  **  ****   **    **

(Guitar 2)
C#|------------------------------------------------------------------------------|
G#|------------------------------------------------------------------------------|             
E |------------------------------------------------------------------------------|
B |------------------------------------------------------------------------------|
F#|------------------------------------------------------------------------------|
B |--12-12-0-0-0-0-12-12-0-0-15-15-0-0-13-13-0-0-10-10-12-12-0-0-10-10-13-13-12~~|
      *  * * * * *  *  * * *  *  * * *  *  * * *  *  *  *  * * *  *  *  *  * 

[Pre Chorus]
(Guitar 1)
C#|--------------------------------------------------------------|
G#|--------------------------------------------------------------|
E |--------------------------------------------------------------|
B |--------------------------------------------------------------|
F#|--------------------5---------------------------5-------------|
B |--0--3-2-0-6~~~~~0---6-5-3~~~~~0--3-2-0-6~~~~0---6-5-3~~~~8\--|

(Guitar 2)
C#|--------------------------------------------------------------|
G#|--------------------------------------------------------------|
E |--------------------------------------------------------------|
B |--------------------------------------------------------------|
F#|--0--3-2-0----------8----------0--3-2-0---------8-------------|
B |--0--3-2-0-6~~~~~0---9-8-6~~~~~0--3-2-0-6~~~~0---9-8-6~~~~8\--|

(Both Guitars)
C#|-------------------------------------------------------------------------------------------|
G#|-------------------------------------------------------------------------------------------|
E |-------------------------------------------------------------------------------------------|
B |-------------------------------------------X3------------------------------6-5-3-----------|
F#|--------------------------------------------------------------------------------6-5-3------|
B |--3p000003p000003p000003p000005p0006p000------3p000003p000003p000003p00000-----------6-5---|
        ****   ****   ****   ****   **   **         ****   ****   ****   ****
[Chorus]
(Guitar 1)
C#|--------------------------------------------|
G#|--------------------------------------------|
E |--------------------------------------------|(X3)  
B |--------------------6666--------------------|
F#|-0000---0000---0000-5555-5b5b5b5b5b5b5b5b---|
B |-0000---0000---0000-------------------------|
    ****   ****   ****
(Guitar 2)
C#|--------------------------------------------|
G#|--------------------------------------------|
E |--------------------------------------------|(X3)
B |-------------------------6b6b6b6b6b6b6b6b---|
F#|-0000---0000---0000-------------------------|
B |-0000---0000---0000-------------------------|
    ****   ****   ****
(Both Guitars)
C#|----------------------------------------|
G#|----------------------------------------|
E |----------------------------------------|
B |-------------------------6-5-3----------|
F#|-0000---0000---0000-----------6-5-3-----|
B |-0000---0000---0000-----------------6-5-|
    ****   ****   ****
[Verse 2]
(Both guitars)
C#|-----------------------------------------|
G#|-----------------------------------------|
E |-----------------------------------------|  (X2)
B |-----------------------------------------|
F#|-----------------------------------------|
B |--0000---00--00--00--0000---00-6b-00-6b--|
     ****   **  **  **  ****   **    **
(Guitar 1)
C#|-----------------------------------------|
G#|-----------------------------------------|
E |-----------------------------------------|
B |-----------------------------------------|
F#|-----------------------------------------|
B |--0000---00--00--00--0000---00-6b-00-6b--|
     ****   **  **  **  ****   **    **
(Guitar 2)
C#|--------------------------------------------------------------------------------------|
G#|--------------------------------------------------------------------------------------|
E |--------------------------------------------------------------------------------------|
B |--------------------------------------------------------------------------------------|
F#|--------------------------------------------------------------------------------------|
B |--12-12-0-0-0-0-12-12-0-0-15-15-0-0-13-13-0-0-10-10-12-12-0-0-12-12-15-15-13-13-10-10-|
      *  * * * * *  *  * * *  *  * * *  *  * * *  *  *  *  * * *  *  *  *  *  *  *  *  *  
(Guitar 1)
C#|-----------------------------------------|
G#|-----------------------------------------|
E |-----------------------------------------|
B |-----------------------------------------|
F#|-----------------------------------------|
B |--0000---00--00--00--0000---00-6b-00-6b--|
     ****   **  **  **  ****   **    **

(Guitar 2)
C#|------------------------------------------------------------------------------|
G#|------------------------------------------------------------------------------|             
E |------------------------------------------------------------------------------|
B |------------------------------------------------------------------------------|
F#|------------------------------------------------------------------------------|
B |--12-12-0-0-0-0-12-12-0-0-15-15-0-0-13-13-0-0-10-10-12-12-0-0-10-10-13-13-12~~|
      *  * * * * *  *  * * *  *  * * *  *  * * *  *  *  *  * * *  *  *  *  * 

[Pre Chorus]
(Guitar 1)
C#|--------------------------------------------------------------|
G#|--------------------------------------------------------------|
E |--------------------------------------------------------------|
B |--------------------------------------------------------------|
F#|--------------------5---------------------------5-------------|
B |--0--3-2-0/6~~~~~0---6-5-3~~~~~0--3-2-0/6~~~~0---6-5-3~~~~8\--|

(Guitar 2)
C#|--------------------------------------------------------------|
G#|--------------------------------------------------------------|
E |--------------------------------------------------------------|
B |--------------------------------------------------------------|
F#|--0--3-2-0----------8----------0--3-2-0---------8-------------|
B |--0--3-2-0/6~~~~~0---9-8-6~~~~~0--3-2-0/6~~~~0---9-8-6~~~~8\--|

(Both Guitars)
C#|---------------------------------------------------------------------------------|
G#|---------------------------------------------------------------------------------|
E |---------------------------------------------------------------------------------|
B |-------------------------------------------X3------------------------------------|
F#|---------------------------------------------------------------------------------|
B |--3p000003p000003p000003p000005p0006p000------3p000003p000003p000003p000005p0006-|
        ****   ****   ****   ****   **   **         ****   ****   ****   ****   **
[Chorus]
(Guitar 1)
C#|--------------------------------------------|
G#|--------------------------------------------|
E |--------------------------------------------|(X4)  
B |--------------------6666--------------------|
F#|-0000---0000---0000-5555-5b5b5b5b5b5b5b5b---|
B |-0000---0000---0000-------------------------|
    ****   ****   ****
(Guitar 2)
C#|--------------------------------------------|
G#|--------------------------------------------|
E |--------------------------------------------|(X4)
B |-------------------------6b6b6b6b6b6b6b6b---|
F#|-0000---0000---0000-------------------------|
B |-0000---0000---0000-------------------------|
    ****   ****   ****
[Bridge]
(Guitar 1)
C#|---------------------------------------------------------------------------|
G#|---------------------------------------------------------------------------|
E |---------------------------------------------------------------------------|
B |---------------------------------------------------------------------------|
F#|------/5----------0--0--0--------------------------------------------------|
B |--0-----6-5-3-2b--0--0--0--------------------------------------------------|
             *
C#|---------------------------------------------------------------------------|
G#|---------------------------------------------------------------------------|
E |---------------------------------------------------------------------------|
B |---------------------------------------------------------------------------|
F#|------/8----------0--0--0--------------------------------------------------|
B |--0-----9-8-6-5b--0--0--0--------------------------------------------------|
             *
C#|----------------------------------------------5*--|
G#|----------------------------------------------5*--|
E |----------------------------------------------5*--|
B |----------------------------------------------5*--|
F#|--00-00-0----00-00-0----00-00-0----00-00-0--------|
B |--00-00-0----00-00-0----00-00-0----00-00-0--------|
     ** ** *    ** ** *    ** ** *    ** ** *
[Chorus]
(Guitar 1)
C#|--------------------------------------------|
G#|--------------------------------------------|
E |--------------------------------------------|(X8)  
B |--------------------6666--------------------|
F#|-0000---0000---0000-5555-5b5b5b5b5b5b5b5b---|
B |-0000---0000---0000-------------------------|
    ****   ****   ****
(Guitar 2)
C#|--------------------------------------------|
G#|--------------------------------------------|
E |--------------------------------------------|(X8)
B |-------------------------6b6b6b6b6b6b6b6b---|
F#|-0000---0000---0000-------------------------|
B |-0000---0000---0000-------------------------|
    ****   ****   ****
[Outro]
(Both Guitars)
C#|-------------------|
G#|-------------------| (X5)
E |-------------------|
B |-------------------|
F#|------/5-----------|
B |--0-----6-5-3-2b---|

[Outro 2]
(Guitar 1)
C#|-------------------|
G#|-------------------| (X4)
E |-------------------|
B |-------------------|
F#|------/5-----------|
B |--0-----6-5-3-2b---|

(Guitar 2)
C#|-------------------|
G#|-------------------| (X4)
E |-------------------|
B |-------------------|
F#|------/8-----------|
B |--0-----9-8-6-5b---|

[Outro 3]
(Guitar 1)
C#|-------------------|
G#|-------------------| (X8)
E |-------------------|
B |-------------------|
F#|------/5-----------|
B |--0-----6-5-3-2b---|

(Guitar 2)
C#|-------------------|
G#|-------------------| (X7)
E |-------------------|
B |-------------------|
F#|------/8-----------|
B |--0-----9-8-6-5b---|

(Extra Guitar)
C#|-------------------|
G#|-------------------| (X7)
E |------/7-----------|
B |--0-----6-5-3-2b---|
F#|-------------------|
B |-------------------|            
Submit corrections

↑ Back to top | Tablatures and chords for acoustic guitar and electric guitar, ukulele, drums are parodies/interpretations of the original songs. You may use it for private study, scholarship, research or language learning purposes only