» » »

Demon Hunter - Collapsing Bass

Artists:  A B C D E F G H I J K L M N O P Q R S T U V W X Y Z # 

Collapsing Bass

(ver. 1) Click to play this song!
Demon Hunter
 Rating:
4/5 (4 votes)
                This is the first tab I've ever made, i listened
to this and came up with this by ear. There might
be mistakes, I'm no pro. Let me know what you
think or let me know of any mistakes you may have

Wait until 6 seconds to start, start with drums
Play times 3, figure out timing, its easy
------------------------------------------------|
------------------------------------------------|
-------0-0-0-0-0-3------------------------------|
--------------------5-5-7-7--0-0-02-0-0-4-4-4-4-|
AFTER 3RD Time
-----------|
-----------|
---9999----|
-----------|
Verse 1, Play times 2
-----------------------------------------------------|
-----------------------------------------------------|
-----------------------------------------------------|
--0--0--00-0-00---00-0-00---0--0--00-0-00-555-333-77-|
THEN verse 2, play times 2
----------------------------------------------------|
----------------------------------------------------|
----------------------------------------------------|
--0--0--0-0--0-0-0--0-0-0--0-0--0--0--0-555-333-77--|
Pre Chorus, play times 3
----------------------------------------------------|
----------------------------------------------------|
----------------------99999999----------------------|
----97----75----530-0-------------------------------|
Then add this, times 1
----------------------------------------------------|
----------------------------------------------------|
----------------------------------------------------|
----97----75----5300000000000000004444--------------|
Chorus, play times 4
------------------------------------------------|
------------------------------------------------|
-------0-0-0-0-0-3------------------------------|
---------------------5-57-7--0-0-02-0-0-4-4-4-4-|
Verse 2, play times 2
----------------------------------------------------|
----------------------------------------------------|
----------------------------------------------------|
--0--0--0-0--0-0-0--0-0-0--0-0--0--0--0-555-333-77--|
Pre Chorus, play times 3
----------------------------------------------------|
----------------------------------------------------|
----------------------99999999----------------------|
----97----75----530-0-------------------------------|
Then add this, times 1
----------------------------------------------------|
----------------------------------------------------|
----------------------------------------------------|
----97----75----5300000000000000004444--------------|
Chorus, play times 4
-------------------------------------------------|
-------------------------------------------------|
-------0-0-0-0-0-3-------------------------------|
---------------------5-5-7-7--0-0-02-0-0-4-4-4-4-|
Then play this times 1
----------------------------------------------------|
----------------------------------------------------|
-----------9--7--5----------------------------------|
--0----------------0--------------------------------|
Solo, play 3 times
----------------------------------------------------|
----------------------------------------------------|
----------------------------------------------------|
--0--0-0--0-0----00---0--0-0--0-0--2222-------------|
Then this: times 1
----------------------------------------------------|
----------------------------------------------------|
----------------------------------------------------|
--0--0-0--0-0----00---0--0-0--0-0--2222222222222----|
Pause, then start up again with this.
----------------------------------------------------|
----------------------------------------------------|
----------------------------------------------------|
------0-------0------------------55553333-----------|
Chorus, play times 6
-------------------------------------------------|
-------------------------------------------------|
-------0-0-0-0-0-3-------------------------------|
---------------------5-5-7-7--0-0-02-0-0-4-4-4-4-|
End with this
----------------------------------------------------|
----------------------------------------------------|
----------------------------------------------------|
-------0--------------------------------------------|
            
Submit corrections

↑ Back to top | Tablatures and chords for acoustic guitar and electric guitar, ukulele, drums are parodies/interpretations of the original songs. You may use it for private study, scholarship, research or language learning purposes only