Home » D » Delta Spirit »

Delta Spirit - Running Tabs

Artists:  A B C D E F G H I J K L M N O P Q R S T U V W X Y Z # 

Running Tabs

(ver. 1) Click to play this song!
Delta Spirit
Tuning:D# G# C# F# A# d#


Verse

   Hold the light my love, hold the light my love.
e|-------0-------------------------------------------------------------------|
B|-0h3------3---0--------------0---------------------------------------------|
G|-----------------------0h3-------3p0---------------------------------------|
D|-----2------2---2---2------2---------2---2---2-----------------------------|
A|---------------------------------------------------------------------------|
E|-0------0-----0---0----0-------0-------0---0-------------------------------|
  
   Could you take enough? Hold the light my love.
e|-------0-------0-----------------------------------------------------------|
B|-0h3-------3------------------0--------------------------------------------|
G|------------------------0h3-------3p0--------------------------------------|
D|-----2-------2---2---2------2---------2---2---2----------------------------|
A|---------------------------------------------------------------------------|
E|-0-------0-----0---0----0-------0-------0---0------------------------------|

You know               I'm done                 And I'm doomed
e|---------------0-------------------------0---------------------------------|
B|-0-------0-------------0---0-------0-----------------0---------------------|
G|-----0-------0-----0-----------0-------0-----0-----0-----------------------|
D|---2-------2-----2-------2---2-------2-----2-----2-------------------------|
A|-4-----4-------4-----4-----3-----3-------3-----3---------------------------|
E|-------------------------------------------------------0-0-0-0-------------|


Repeat verse


When I               Come running
e|-0-------0---0-------0---------------3p2-------2---------------------------|
B|-----3-----------3-------0-------0---------3-------------------------------|
G|-----------------------------0-----------2-------2-------------------------|
D|---2-------2---2-------2---2-------2-0-------0-----------------------------|
A|-3-----3-----3-----3-----2-----2-------------------------------------------|
E|---------------------------------------------------------------------------|
When I               Come running                  To you
e|-0-------0---0-------0---------------3p2-------2----------0-----0-----0----|
B|-----3-----------3-------0-------0---------3--------------0-----0-----0----|
G|-----------------------------0-----------2-------2--------0-----0-----0----|
D|---2-------2---2-------2---2-------2-0-------0-----2-2----2-----2-----2----|
A|-3-----3-----3-----3-----2-----2--------------------------2-----2-----2----|
E|---------------------------------------------------0-0----0-----0-----0----|

Repeat verse


Repeat Chorus

Ending
e|---------------------------------0-----------------------------------------|
B|---------------------------------0-----------------------------------------|
G|---------------------------------0-----------------------------------------|
D|-2-2-2-2-2-2-2-2-2-2-2-2-2-2-2-2-2-----------------------------------------|
A|---------------------------------2-----------------------------------------|
E|---------------------------------0-----------------------------------------|            
Submit corrections

↑ Back to top | Tablatures and chords for acoustic guitar and electric guitar, ukulele, drums are parodies/interpretations of the original songs. You may use it for private study, scholarship, research or language learning purposes only