» » »

Delillos - Toff I Pyjamas Tabs

Artists:  A B C D E F G H I J K L M N O P Q R S T U V W X Y Z # 

Toff I Pyjamas Tabs

(ver. 1) Click to play this song!
Delillos
 Rating:
3.5/5 (20 votes)

 Toff I Pyjamas  lessons Tabs too difficult? Try these video lessons and learn fast
 
                e|---------------------------------------------------|
B|---------------------------------------------------|
G|--------0--------0--------0--------0-----0--------*|
D|-----4--------4--------4--------4--------------4--*|
A|--3--------3--------3--------3--------5-----5------|
E|---------------------------------------------------|

Vers:
Av og til er jeg sa dum
At nar jeg ser meg i speilet da blir jeg irritert
Og jeg blir dum i pyjamas og jeg blir dum med frakk
Og nar jeg gar pa bussen da skjonner alle at
 
Refreng:
Em
Her kommer dumme, dumme, dumme, dum
Her kommer dumme, dumme, dumme, dum
C         D           A            
Wow, wow, yeah, yeah, slik gar refrenget her
 
Intro + Vers
Og av og til er jeg sa toff
At nar jeg ser meg i speilet da blir jeg imponert
Og jeg blir toff i pyjamas og jeg blir toff med frakk
Og nar jeg gar pa bussen da skjonner alle at
 
Refreng (x2):
Em
Her kommer toffe, toffe, toffe, toff
Her kommer toffe, toffe, toffe, toff
C         D           A            
Wow, wow, yeah, yeah, slik gar refrenget her
 

Instrumentalbro (x2)

    C     H  C     C  H  C  D   D
e|--x-----x--x-----x--x--x--x---x---|
B|--5-----4--5-----5--4--5--7---7---|
G|--x-----x--x-----x--x--x--x---x--*|Spilles 2 ganger
D|--5-----4--5-----5--4--5--7---7--*|
A|--3-----2--3-----3--2--3--5---5---|
E|----------------------------------|

    A     G  A     A  G  A   D  D
e|---------------------------x--x---|
B|---------------------------7--7---|
G|--6-----4--6-----6--4--6---x--x--*|Spilles 2 ganger
D|--x-----x--x-----x--x--x---7--7--*|
A|--7-----5--7-----7--5--7---5--5---|
E|--5-----3--5-----5--3--5----------|            
Submit corrections


        Toff I Pyjamas  lessons Hard to play? Try these video lessons and learn fast Toff I Pyjamas  lessons
        
↑ Back to top | Tablatures and chords for acoustic guitar and electric guitar, ukulele, drums are parodies/interpretations of the original songs. You may use it for private study, scholarship, research or language learning purposes only