Home » D » Delbert Mcclinton »

Delbert Mcclinton - Old Weakness (comin’ On Strong) Tabs

Artists:  A B C D E F G H I J K L M N O P Q R S T U V W X Y Z # 

Old Weakness (comin’ On Strong) Tabs

(ver. 1) Click to play this song!
Delbert Mcclinton
Old Weakness (Comin’ On Strong) – Delbert McClinton
Songwriters – Gary Nicholson & Bob DiPiero

 4/4
  Gtr I
|-0-0---------------------|
|-3-3-0-0-3-0-------------|
|-2-2-0-0-2-0--------0----|
|-------------2--0-2------|
|-------------------------|
|-------------------------|


 4/4
  Gtr I
|-0-0---------------------------3-3--2---2-3-3----|
|-3-3-0-0-3-0-------------------3-3--2---2-3-3----|
|-2-2-0-0-2-0--------0----------4-4--3---3-4-4----|
|-------------2--0-2----2-0-----5-5--4---4-3-5----|
|---------------------------2---5-5--4---4-4-5----|
|-----------------------------3-3-3--2---3-3-3----|



G                      F#-G
Two in the morning, too hot to sleep
G                      F#-G
Tossin’ and turnin’ and twistin' the sheets
D             E                   G
I feel an old weakness comin’ on strong
G                    F#-G
Window wide open in the back bedroom
G                    F#-G
Smell of sweet honeysuckle in full bloom
D             E                       G
I feel an old weakness comin’ on strong


Chorus
C          D                           G
Feel like I’m running real low on will power
C             D                     G
Can’t get you out of this heart of mine
C                 D                      E 
Eb – E                Eb-E     
I keep fightin’ to let you go
Eb – E                F#-G
But your love is beyond my control


Took down that picture of you and me
But every time I look where it used to be
I feel an old weakness comin’ on strong
Still got your number next to the phone
Just when I believe I can leave it alone
I feel an old weakness comin’ on strong

Feel like I’m running real low on will power
Can’t get you out of this heart of mine
I keep fightin’ to let you go
But your love is beyond my control
            
Submit corrections

↑ Back to top | Tablatures and chords for acoustic guitar and electric guitar, ukulele, drums are parodies/interpretations of the original songs. You may use it for private study, scholarship, research or language learning purposes only